Papyrus Containing The Spell To Preserve Its Possessor Against Attacks From He Who Is In The Water - Nile






                         Band: Nile
          Song: Papyrus Containing the Spell to Preserve Its Possessor......
                       Album: Ithyphallic
      Tabbed By: Chris Povey  (metallica-best@hotmail.co.uk)

Intro:- Use Heavy Distortion

B----------------------------------------------------------------------------|
F#--------------------------16-15-13-----------------------------------------|
D-------------------------------------16-13-12-13-16-13-12-------------------|
A-----------------------------------------------------------16-13-12---------|
E-5-5-5---8-8-8---5-5-5-----------------------------14-11-10-11-14-11-10-----|
A-5-5-5---8-8-8---5-5-5------------------------------------------------------|


Solo Karl:-

                                  Guitar Two Plays This Bit
B----------------------------------------------------------------------------|
F#-16-15-13-----------------------15-16-15-15-16-18-16-16-15-16-15-13--------|
D-----------16-13-12-13-16-13-12---------------------------------------------|
A----------------------------------------------------------------------------|
E---------------------------5-5-5---8-8-8---5-5-5----------------------------|
A------------------------------------------------------5-5-5---8-8-8---5-5-5-|

Play the above twice with        3/4
the alternate endings but
the first bar of the song isn't included then Karl plays the following himself:

B------------------------------------|
F#-----------------------------------|
D------------------------------------|
A-------------------12---13----------|
E-----------12--13-------------------|
A--0-12--13--------------------------|   ( Repeat This 4 Times)


Play Intro Riff Again

B---------------------------------------------------------------------------|
F#--------------------------16-15-13----------------------------------------|
D-------------------------------------16-13-12-13-16-13-12------------------|
A-----------------------------------------------------------16-13-12--------|
E-5-5-5---8-8-8---5-5-5-----------------------------14-11-10-11-14-11-10----|
A-5-5-5---8-8-8---5-5-5-----------------------------------------------------|

ĂŽnscrie-te la newsletter


Like us on Facebook