Sarcophagus Tab - Nile






sBand:  (NILE)
Album: (IN THEIR DARKENED SHRINES)
Song:  (SARCOPHAGUS)

Copyright (c)  (Relapse Records) (2002)

.  - palm mute           /  - slide up to
  - slide down to       ~  - vibrato
h  - hammer on           b  - Bend
p  - pull off            Suffixes for bend
t  - tap                 f  - full bend    h - half bend
ph - pinched harmonic    q  - quarter bend t - tap bend
*  - See comment         ^  - Hold bend    r release bend
x  - Stuccatto           ~  - vibrato bend
,  - slight palm mute    () - ghost note, sustained note
"  - tremolo note         - Trill

Tunning. I play this version a step down, although i think nile use A tuning.
It isn't at 100% but its close, the song is also played using pitch control
or vibe effect.

If playing with one guitar, just play guitar 2's riffs on guitar 1, by playing
the 2 strings instead of 1.  This is important because allot of the riffs in
this song won't sound right unless accompanied by another guitar or played
on 2 strings, including the effects. .

INTRO

Guitar 1
|-------------------------------------------------------------------|
|-------------------------------------------------------------------|
|----------------------------------9---9-8-------------9------------|
|-12h13p12-------------------------9---9-8--9-6-8b-----9------------|
|----------14-13-11-14b~~~-----7h9----------9-6-8b---7--------------|
|-------------------------------------------------------------------|

Guitar 2

|-------------------------------------------------------------------|
|-------------------------------------------------------------------|
|-12h13p12----------------------------------------------------------|
|----------14-13-11-14b~~~------------------------------------------|
|-----------------------------2-----------------\\2--------------|
|-----------------------------0-----------------\\

ĂŽnscrie-te la newsletter


Like us on Facebook