Stones Of Sorrow Bass Tab - Nile






D [-------------------------------------------]
A [-------------------4-3---------------------]
E [-5-----6-----5-6---------5-6-5---4---------]
A [-----------------x-----x-------------5---4-]

D [---------------------------]
A [---------------------------]
E [---------------------------]
A [-5-----4-5-8-7-7-8-11-10---]



D [---------------------------------------------------]
A [---------------------------------------------------]
E [--------------------------2-/-3-----2---3---6--5---]
A [-2-/-3-----2---3---6--5----------------------------]





D [-------------------------------------------------]
A [-------------------------------------------------]
E [--------------------------2-/-3-----2---3---6--5-]
A [-2-/-3-----2---3---6--5--------------------------]


D [------------------------------------------][-----]
A [-/-6--------------/-6---------------------][-/-6-]
E [-/-x--------------/-x---------------------][-/-x-]
A [-/-6-----0--------/-6-----0------0-1--0-1-][-/-6-]



D [-------------------------]
A [-------------------------]
E [-------------------------]
A [-5----------4----------3-]


D [-------------]
A [-------------]
E [-------------]
A [-0--------2~-]


D [---------------------]
A [---------------------]
E [---------------------]
A [-2h3-3-3-3-3-3-3-3-3-]


D [-------------------------------------------------]
A [-------------------------------------------------]
E [-------------------------------------------------]
A [-2-2-2-2-2-2-3-3-3-3-3-3-2-2-2-2-2-2-2-2-2-2-2-2-]


D [---------------------------------]
A [---------------------------------]
E [---------------------------------]
A [-0-0-0-0-0-0-0-0-2-2-2-2-2-2-2-2-]


D [-------------------------------------------------]
A [-------------------------------------------------]
E [-------------------------------------------------]
A [-6-6-6-6-6-6-5-5-5-5-5-5-6-6-6-6-6-6-5-5-5-5-5-5-]



D [-------------]
A [-------------]
E [-------------]
A [-2/3-3-3-3-3-]



D [-------------------------------------------------]
A [-------------------------------------------------]
E [-------------------------3-3-3-3-3-3-2-2-2-2-2-2-]
A [-5-5-5-5-5-5-6-6-6-6-6-6-------------------------]




D [-------------------]
A [-------------------]
E [-6-6----5-5----3-3-]
A [--------0-0--------]




D [-------------------]
A [-------------------]
E [-------------------]
A [-8----10----7-----]



D [-------------------]
A [-------------------]
E [-8-8----6-6----5-5-]
A [---------------0-0-]



D [------------------------------------]
A [------------------------------------]
E [-6-6----5-5----3-3----1-1-----4--0--]
A [--------0-0-------------------------]


D [----------]
A [----------]
E [----------]
A [----------]

ĂŽnscrie-te la newsletter


Like us on Facebook