Wrought Tab - Nile






#----------------------------------PLEASE NOTE--------------------------------#
#This file is the author's own work and represents their interpretation of the#
#song. You may only use this file for private study, scholarship, or research.#
#-----------------------------------------------------------------------------#
#-- File created with Instab - http://www.pconline.com/~smcarey/instab.html --#
#-----------------------------------------------------------------------------#

Author/Artist: Nile
Title: Wrought
Album: In the Beginning
Transcribed by: Kernous aka Jamin Williamson
Email: Kernous@hotmail.com
Tune down 3 and 1/2 steps down to A.Listen to the song for timing.Sorry
no solos.Corrections are welcome.Enjoy!

* bend
/  slide up or down
pm. palm mute
x pick slide 
h hammer on
p pull off


  RIFF1
-|------------------------------------------------------------|
-|----------------------------------------/7------------------|
-|------------------------------------------------------------|
-|-8------7---5---2---3---2-----7-8-2-----/5------5---7---3---|
-|--------7---5---2---3---2-----7-8-2-------------5---7---3---|
-|-6------5---3---0---1---0-----5-6-0-------------3---5---1---|
   *:bend up 1/4 step       
                                                                    
  RIFF2
-|-------------------------------------------------------|
-|-------------------------------------------------------|
-|7/9-9-----------------7/9-107/9-9-----------------7----|
-|-------------------------------------------------------|
-|5/7-7-2-2-2-2-2-2-2-2-5/7-8-5/7-7-2-2-2-2-2-2-2-2-5----|
-|------0-0-0-0-0-0-0-0-------------0-0-0-0-0-0-0-0------|
        pm. . . . . . .             . . . . . . . .                                                                      
  RIFF3
-|------------------------------------|
-|------------------------------------|
-|------------------------------------|
-|-7------7-7---7---7-5-3---3---3-7-3-|
-|--------------------5-3---3---3-7-3-|
-|-5------5-5---5---5-3-1-x-1-x-1/51-|
                *:bend up 1/4 step
                                                              
  RIFF4
-|------------------------------------------------------------|
-|------------------------------------------------------------|
-|-7/9-9-----------------7/9-10-7/9-9-------------------------|
-|----------------------------------------------------8-8-8---|
-|-5/7-7-2-2-2-2-2-2-2-2-5/7-8--5/7-7-2-2-2-2-2-2-2-2-6-6-6-7-|
-|-------0-0-0-0-0-0-0-0--------------0-0-0-0-0-0-0-0-------5-|
         . . . . . . . .              . . . . . . . . 
  RIFF5                                                                            
-|---------------------------------------------------------------
-|---------------------------------------------------------------
-|---------------------------------------------------------------
-|----------------------------7----------------------------------
-|-8-2-2-7-2-2-8-2-2-7-2-2-7-858-822227222282222722227/85-82222-
-|-6-0-0-5-0-0-6-0-0-5-0-0-5/6-6-600005000060000500005/63-60000-
     . .   . .   . .   . .        .... .... .... ....       ....                                                                         
------------------------------------------------|
------------------------------------------------|
------------------------------------------------|
-------------------7----------------------------|
-7222282222722227/858-822227222282222722227/85-|
-5000060000500005/6-6-600005000060000500005/63-|
  .... .... ....       .... .... .... ....                                                                            
  RIFF6
-|---------------------------------------------------------|
-|---------------------------------------------------------|
-|---------------------------------------------------------|
-|-2---------------------------2---------------------------|
-|-2-----------h--p------------2-----------h--p------7-5-3-|
-|-0----1-0-1-1-3--1-0---5-3-1-0----1-0-1-1-3--1-0---5-3-1-|
                                                                              
  FILL1         RIFF7
-|-------------|--------------------------------------------
-|-------------|--------------------------------------------
-|-------------|--------------------------------------------
-|-------------|--------------------------------------------
-|-7--5--3--5--|-7------7------7------8-7-5-7------7------7-
-|-5--3--1--3--|-5-5555-5-5555-5-5555-6-5-3-5-5555-5-5555-5-
                   ....   ....   ....         ....   ....                                                           
------------------------------------------------------------------|
------------------------------------------------------------------|
------------------------------------------------------------------|
------------------------------------------------------------------|
------5-8-7-5------5------5------5-7-8-7------7------7---5-5--8-8-|
-5555-3-6-5-3-3333-3-3333-3-3333-3-5-6-5-5555-5-5555-5---3-3--6-6-|
 ....         ....   ....   ....         ....   ....                                                                             
  RIFF8                         FILL2
-|-----------------------------|----------|
-|-----------------------------|----------|
-|-----------------------------|----------|
-|-----------------------------|----------|
-|-1---------------------------|-2--3--5--|
-|-----------------------------|-0--1--3--|
   tremolo pick
                                                                           
  RIFF9
-|-------------------------------------------------------|
-|-------------------------------------------------------|
-|-------------------------------------------------------|
-|-------------------------------------------------------|
-|-7--------8--7--5--7--------8--7--5--7--5--3/52-------|
-|-5--------6--5--3--5--------6--5--3--5--3--1/3






Like us on Facebook