Never Again Intro Tab - Nocturnal Rites






----------------------------------------------------------------------------
                Never Again - Nocturnal Rites
----------------------------------------------------------------------------
Tabbed by: Lucridis
Email: Lucridis@Googlemail.com
Tuning: Standard

E|-------------------------|
B|-------------------------|
G|-----------5-4-----------|
D|-----6-4-6-----4-6---4-6-|
A|-6-6---------------6-----|
E|-------------------------|

E|-------------------------|
B|-------------------------|
G|-----------7-5-5-4-------|
D|-----6-4-6-----------4-6-|
A|-6-6---------------6-----|
E|-------------------------|

E|-------------------------|
B|-------------------------|
G|-----------5-4-----------|
D|-----6-4-6-----4-6---4-6-|
A|-6-6---------------6-----|
E|-------------------------|

E|-----------------9-7---------------|
B|-10-9-7---7----------10-9-10-7-----|
G|--------9---9-7----------------9-7-|
D|-----------------------------------|
A|-----------------------------------|
E|-----------------------------------|

E|-------------------------|
B|-------------------------|
G|-----------5-4-----------|
D|-----6-4-6-----4-6---4-6-|
A|-6-6---------------6-----|
E|-------------------------|

E|-------------------------|
B|-------------------------|
G|-----------7-5-5-4-------|
D|-----6-4-6-----------4-6-|
A|-6-6---------------6-----|
E|-------------------------|

E|-------------------------|
B|-------------------------|
G|-----------5-4-----------|
D|-----6-4-6-----4-6---4-6-|
A|-6-6---------------6-----|
E|-------------------------|

E|-----------------9-7---------------|
B|-10-9-7---7----------10-9-10-7-----|
G|--------9---9-7----------------9-7-|
D|-----------------------------------|
A|-----------------------------------|
E|-----------------------------------|






Like us on Facebook