The Quitter Tab - NOFX




NOFX- The Quitter
Coaster

repeat 3times then pickslide                              1e
|---------||--this is also the ending--|--|
|---------||-----------------------|---|--|
|-10-10-9-||-9--12--14--16--14--12-|-14|-9|
|-10-10-9-||-----------------------|---|--|
|-8--8--7-||-7--10--12--14--12--10-|-12|-7|
|---------||-----------------------|---|--|

PM
|----------------------------------------|
|----------------------------------------|
|-99999999-77777777---------------1010-7-|
|-99999999-77777777-77777777-5555-1010-7-|
|-77777777-55555555-77777777-5555-8-8--9-|
|-------------------55555555-3333--------|
PM
|----------------------------------------|
|----------------------------------------|
|-99999999-77777777---------------10-----|
|-99999999-77777777-77777777-5555-10-----|
|-77777777-55555555-77777777-5555-8------|
|-------------------55555555-3333--------|
chorus
|----------------------------------------|
|----------------------------------------|
|-99999999----------77777777-------------|
|-99999999-55555555-77777777-77777777----|
|-77777777-55555555-55555555-77777777----|
|----------33333333----------55555555----|
chorus
|----------------------------------------|
|----------------------------------------|
|-99999999-77777777---------------1010-7-|
|-99999999-77777777-77777777-5555-1010-7-|
|-77777777-55555555-77777777-5555-8-8--9-|
|-------------------55555555-3333--------|
play it all again except the first intro part you only play that once

then is the quiet thing with the talking s**t
after that you only play the chorus with the ending




ĂŽnscrie-te la newsletter


Join the ranks ! LIKE us on Facebook