We March To The Beat Of Indifferent Drum (ver2) Bass Tab - NOFX




We March To The Beat Of Indifferent Drum (Bass Tab)

  INTRO
G-----------------------|
D-----------------------|
A-----------------------|
E-12----7-5-7-12-10-----|

  VERSE (x2)
G-------------------|-------14-12-11-12P11---|----7H9-11-9-7/9-11-|-9-9-7---------7-|
D-------------------|---------------------12-|-9-9----------------|------9-7-5-5-7--|
A-3-3-3-5-3-2-3-2-0-|----3-5-----------------|--------------------|-----------5-----|
E-------------------|-3-3--------------------|--------------------|-----------------|

  CHORUS
G--------------------------------------------------|
D-22222222--------22222222--------22222222---------| (X1)
A-------------------------22222222--------55555555-|
E---------33333333---------------------------------|

G----------------------------------|
D-------------------------22222222-| (x2)
A-33333333--------22222222---------|
E---------33333333-----------------|

G---------------------------------------------|
D---------------------------------------------| (x1)
A-33333333333333333----------------2222222222-|
E------------------3333333333333333-----------|

G-----------------------------------------------------|
D-2222-2222--------2222-2222--------2222-2222---------| (X1)
A---------------------------22222222---------55555555-|
E----------33333333-----------------------------------|

  VERSE (x2)
G-------------------|-------14-12-11-12P11---|----7H9-11-9-7/9-11-|-9-9-7---------7-|
D-------------------|---------------------12-|-9-9----------------|------9-7-5-5-7--|
A-3-3-3-5-3-2-3-2-0-|----3-5-----------------|--------------------|-----------5-----|
E-------------------|-3-3--------------------|--------------------|-----------------|

  CHORUS
G-----------------------------------------------------|
D-2222-2222--------2222-2222--------2222-2222---------| (X1)
A---------------------------22222222---------55555555-|
E----------33333333-----------------------------------|

G-----------------------|
D-----------------------|
A-33333333333333333-----|
E------------------3~---|

ĂŽnscrie-te la newsletter


Join the ranks ! LIKE us on Facebook