Pyromane En Public Bass Tab - Noir Desir






dit par Gart78

La basse ne joue pas tout le temps mais quan elle jou elle fait ca...
la rythmique n'est pas forcment facile a choper (ca dpend du niveau) mais une foi 
l'a c'est un vrai bonheur!!!! faite vous plaisir


Riff principal (a rpter)
------------------------------------|
------------------------------------|
--------------10-------10-10-9-9----|
12--12--10-12----12-10-----------10-|

Riff final (a jouer une seul foi)
------------------------------------|
------------------------------------|
----------10-9----------------------|
12-----12------10-12----------------|






Like us on Facebook