Un Jour En France Intro Tab - Noir Desir






e|-------------------------------------------------------------------------|
B|-------------------------------------------------------------------------|
G|-/2--3-3-3-3--2-2-2-2-/8-8-8-8--2-2-2-2--3-3-3-3--2-2-2-2----------------|
D|-/2--3-3-3-3--2-2-2-2-/8-8-8-8--2-2-2-2--3-3-3-3--2-2-2-2--3-3-3-3-3-3-3-3
A|--0--1-1-1-1--0-0-0-0-/6-6-6-6--0-0-0-0--1-1-1-1--0-0-0-0--3-3-3-3-3-3-3-3
E|-----------------------------------------------------------1-1-1-1-1-1-1-1
                                                         pm  . . . . .

e|-------------------------------------------------------------------------|
B|-------------------------------------------------------------------------|
G|-/2--3-3-3-3--2-2-2-2-/8-8-8-8--2-2-2-2--3-3-3-3--2-2-2-2--8-8-8-8-8-8-8-8
D|-/2--3-3-3-3--2-2-2-2-/8-8-8-8--2-2-2-2--3-3-3-3--2-2-2-2--8-8-8-8-8-8-8-8
A|--0--1-1-1-1--0-0-0-0-/6-6-6-6--0-0-0-0--1-1-1-1--0-0-0-0--6-6-6-6-6-6-6-6
E|-------------------------------------------------------------------------|






Like us on Facebook