Get Inside Tab - Nonpoint




Band- Nonpoint
Song- Get Inside

Drop D, tuned down 1 full step

Main Riff
E----------------------------|------|
B----------------------------|------|
G----------------------------|------|
D--0-8p7-0-10p8-0-8p7-7---7--|------|
A-----------------------0----|-0-00-|
D------------------(let ring)|-0-00-|
Let the 0 on (A) ring          p.m

Verse
E-------------------------|----|-----|
B--------------=----------|----|-----|
G-------------------------|----|-----|
D-------------------5h3---|----|--3b-|
A-------0h3---3h5-0-------|--3b|-----|
D-3h5-0-----0-----------0-|----|-----|
p.m.............


Pre-Chorus
E----------------------------------|--------|
B----------------------------------|--------|
G----------------------------------|--------|
D-----------------3-0-5-7-5-0-3-0--|-000000-|
A------0-3-3-5-30------------------|-000000-|
D-3-5------------------------------|-000000-|
                                      p.m.
This is played VERY fast, and takes a lot of getting used to.


Chorus (This is relaxingly easy after that crap!)
E-----------------------------------|-----------*5*--|
B-----------------------------------|----------------|
G-----------------------------------|----------------|
D-3-0--------0---0--1-0-------0---0-|----------------|
A-3-0--------0---0--1-0-------0---0-|----------------|
D----9

ĂŽnscrie-te la newsletter


Join the ranks ! LIKE us on Facebook