Mountains Tab - Nonpoint




Band- Nonpoint
Song- Mountains

Tuning: Drop C (C,G,C,F,A,D)

Key:

B = bend
 = slide down
/ = slide up
< > = natural harmonic
*  = pinch harmonic
x = mute
. = palm mute


intro: great riff
------------------------------------------------------------------------------|
------------------------------------------------------------------------------|
------------------------------------------------------------------------------|
---------------------------------------------------------------------------|
---------------------------8-----------------------------------------------|
-0-12-0-125-0-5b-0-0-5-7------0-12-0-125-0-5b-0-0---------------------------|

verse:
------------------------------------------------------------------------------|
------------------------------------------------------------------------------|
---7--14-12------------------------------------------------------------------|
---7---x-10--10--10--10--10--------------------------------------------------|
---5--12-10-------8-------7--------------------------------------------------|
---0-----10------------------------------------------------------------------|


prechorus: first time is palm muted, the pinch harmonics come in the second time      around

------------------------------------------------------------------------------|
------------------------------------------------------------------------------|
------------------------------------------------------------------------------|
-------10------10----10-------10-------10-----10------10-----10---10------10--|
--------------------------------------------------8-8----8-8----8-----7-7-----|
-12-12----12-12---12----10-10----10-10-----10---------------------------------|
  .  .     .  .    .     .  .     .  .      .     . .    . .    .     . .

----------------|-------------------------------------------------------------|
----------------|-------------------------------------------------------------|
----------------|-----*10-----*10-----*10-------------------------------------|
-----10---10----|-------------------------------------------------------------|
-7-7----7-------|-7-7------7-7------7-----------------------------------------|
----------------|-------------------------------------------------------------|
 . .    .

chorus:
------------------------------------------------------------------------------|
------------------------------------------------------------------------------|
--7--75--53--3-2------------------------------------------------------------|
--7--75--53--3-2------------------------------------------------------------|
--5--53--31--1-0------------------------------------------------------------|


2:00
------------------------------------------------------------------------------|
------------------------------------------------------------------------------|
------------------------------------------------------------------------------|
------------------------------------------------------------------------------|
------------------------------------------------------------------------------|
-0-12-0-12/5---0-5b-0-0-0-5---------------------------------------------------|

2:18
------------------------------------------------------------------------------|
------------------------------------------------------------------------------|
--7--75--53--32------------------------------------------------------------|
--x--x-x--x-x--x-x------------------------------------------------------------|
--5--53--31--1

ĂŽnscrie-te la newsletter


Join the ranks ! LIKE us on Facebook