Memphis Will Be Laid To Waste (ver2) Bass Tab - Norma Jean




I dont no y nobody has accurate tabs for this band, they r sick. Oh yea redeemer is an 
cd but prob. Not exactly what ur expecting from them.

P= pull off
h= hammer
.= palm mute

Intro (scream)
F---------------------------------]
C---------------------------------]
G---------------------------------]
C-6-6-6-6-6-6-6-6-6-6-6-6-6-6-6-6-]

Rest the 4 times that lead plays by itself

(Waltz around the room)
F-------------------]
C-------------------]
G----555555555-4p0~-] x8
C-000---------------]
  ...
Wait one time around for guitar and then come in with drums

Bridge
F---------------------------------]
C---------------------------------]
G---------------------------------] x7
C-99-9999-9-99-99-88-8888-5-55-55-]

F----------------------]
C-----------------7~---]
G-------------------4~-] x2
C-99999---99999--------]

(Now youre doing the waltz with your murderer)
F-------------------------------------------------]
C-------------------------------------------------]
G-------------------------------------------------] x2
C-0000---0000---0-00-0-00-----0000-0000------0-00-]
  ....   ....   . .. . ..     .... ....      . ..

F-------]
C-------]
G-------] x1
C8~-4~-]


(Waltz around the room) played faster
F-------------------]
C-------------------]
G----555555555-4p0~-] x8
C-000---------------]
  ...


F------]
C------]
G------] x4
C-0000-]
  ....

(Mediocrity is the killer)
F---------------------------------]
C---------------------------------]
G---------------------------------] x8
C-00000000-00-00---00000000-00-00-]
  ........ .. ..   ........ .. ..
(As for yourself)
F----]
C----]
G-8~-] x4
C----]

(Fashion)
F-------------]
C-------------]
G-------------] x8
C-0h2-8-88-8~-]

Outro (He laid emeralds in her eyes)
F---------]
C---------]
G---------] x24
C-88-8-8~-]

End
F----]
C----]
G----]
C-4~-]

Outro- I no 24 seems like a lot of times, but play the same rhythm as the guitars and it 
be fine right.

Well thats it. Its my first tab but Im 99% sure it correct. If not e-mail me and Ill 
it. Please rate my tab. Overhang16@verizon.net

ĂŽnscrie-te la newsletter


Join the ranks ! LIKE us on Facebook