Murderotica Tab - Norma Jean




this is my second tab and i am 100% its correct. it is possible to play this song by 
self. it may not seem like it but really, it is. so try real hard. norma jean will always 
forever good

note- all 0's in this are palmmuted. in the intro u also p.m. the 3 chord
                                                                  4
listen to song and u will figure it out.

drop c#- c#,g#,c#,f#,a#,a#

c#--1b------1b-4b-------|2b---1b------1b-4b------|--000024100002410000241-|
g#----------------------|------------------------|--0000---0000---0000----|
c#----------------------|------------------------|------------------------|
f#----------------------|------------------------|------------------------|
a#----33335-------33335-|--3----33335-------33335|------------------------|
a#----44446-------44446-|--4----44446-------44446|------------------------|

c#--000024100002410000002-4-1-0-0-0-2-4-1-0-0-0-2-4-1-0-0-0-2-4-1-0000-|
g#--0000---0000---0000002-4-1-0-0-0-2-4-1-0-0-0-2-4-1-0-0-0-2-4-1-0000-|
c#----------------------2-4-1-0-0-0-2-4-1-0-0-0-2-4-1-0-0-0-2-4-1-0000-|
f#---------------------------------------------------------------------|
a#---------------------------------------------------------------------|
a#---------------------------------------------------------------------|

c#--

ĂŽnscrie-te la newsletter


Join the ranks ! LIKE us on Facebook