Untitled Tab - Norma Jean




Band: Norma Jean
Song: Untitled
Album: Bless the Martyr Kiss the Child
Approximate Time: 2:07

b - Bend
* - Harmonics
/ - Slide Up
 - Slide Down
p - Pull

Guitar 1 - Distortion (0:09)

|-15--12------------------------------12-|
|---------15--12-------12b--------12-----|
|-----------------15b--15b----15---------|
|----------------------------------------|
|----------------------------------------|
|----------------------------------------|

Guitar 1 - Distortion (0:12)

|-15--12------------------------------12-|
|---------15--12-------12b--------12-----|
|-----------------15b--15b----15---------|
|----------------------------------------|
|----------------------------------------|
|----------------------------------------|

Guitar 2 - Distortion (0:15)

|-12-|
|-12-|
|-12-|
|----|
|----|
|----|

Guitar 1 - Distortion (0:16)

|-15--12------------------------------12-|
|---------15--12-------12b--------12-----|
|-----------------15b--15b----15---------|
|----------------------------------------|
|----------------------------------------|
|----------------------------------------|

Guitar 2 - Distortion (0:18)

|-12*-|
|-12*-|
|-12*-|
|-----|
|-----|
|-----|
 
Guitar 1 - Distortion (0:19)

|-15--12------------------------------12-|
|---------15--12-------12b--------12-----|
|-----------------15b--15b----15---------|
|----------------------------------------|
|----------------------------------------|
|----------------------------------------|

Guitar 2 - Distortion (0:21)

|----|
|----|
|-12-|
|----|
|----|
|----|

Guitar 1 - Distortion (0:23)

|-15--12------------------------------12-|
|---------15--12-------12b--------12-----|
|-----------------15b--15b----15---------|
|----------------------------------------|
|----------------------------------------|
|----------------------------------------|

Guitar 2 - Distortion (0:23)

|-15--12-----------------------------|
|---------15--12-------12b-----------|
|-----------------15b--15b-(let ring)|
|------------------------------------|
|------------------------------------|
|------------------------------------|

Guitar 1 - Distortion (0:26)

|----------------------------------------|
|-15--12------12--12b---12b----12b---12b-|
|---------15------15b---15b----15b---15b-|
|----------------------------------------|
|----------------------------------------|
|----------------------------------------|

Guitar 2 - Distortion (0:26)

|-15--12-----------------------------12-|
|---------15--12-------12b--------------|
|-----------------15b--15b----15p16-----|
|---------------------------------------|
|---------------------------------------|
|---------------------------------------|

Guitar 1 - Distortion (0:29)

|---------------------------------------|
|-12b--12b--12b--12b--12b----12b----12b-|
|-15b--15b--15b--15b--15b----15b----15b-|
|---------------------------------------|
|---------------------------------------|
|---------------------------------------|

Guitar 2 - Distortion (0:29)

|-15--12-----------------------------12-|
|---------15--12-------12b--------------|
|-----------------15b--15b----15p16-----|
|---------------------------------------|
|---------------------------------------|
|---------------------------------------|

Guitar 1 - Distortion (0:33)

|---------------------------------------|
|-12b--12b--12b--12b--12b----12b----12b-|
|-15b--15b--15b--15b--15b----15b----15b-|
|---------------------------------------|
|---------------------------------------|
|---------------------------------------|

Guitar 2 - Distortion (0:33)

|-15--12--------------------------------12-|
|---------15--12--12b--12b----12p15p12-----|
|-----------------15b--15b-----------------|
|------------------------------------------|
|------------------------------------------|
|------------------------------------------|

Guitar 1 - Distortion (0:36)

|---------------------------------------|
|-12b--12b--12b--12b--12b----12b----12b-|
|-15b--15b--15b--15b--15b----15b----15b-|
|---------------------------------------|
|---------------------------------------|
|---------------------------------------|

Guitar 2 - Distortion (0:36)

|-15--12--------------------------------12-|
|---------15--12--12b--12b----12p15p12-----|
|-----------------15b--15b-----------------|
|------------------------------------------|
|------------------------------------------|
|------------------------------------------|

Guitar 1 - Distortion (0:40)

|-------------------------------------12-|
|--------------12b--12b--12b------12-----|
|--------------15b--15b--15b--15---------|
|----------------------------------------|
|----------------------------------------|
|----------------------------------------|

Guitar 2 - Distortion (0:40)

|-15--12----------------------12--15--12-|
|---------15--12--12b--12b---------------|
|-----------------15b--15b---------------|
|----------------------------------------|
|----------------------------------------|
|----------------------------------------|

Guitar 1 - Distortion (0:43)

|-15--12------------------------------12-|
|---------15--12-------12b--------12-----|
|-----------------15b--15b----15---------|
|----------------------------------------|
|----------------------------------------|
|----------------------------------------|


Guitar 2 - Distortion (0:43)

|-15--12------------------------------12-|
|---------15--12-------12b------------12-|
|-----------------15b--15b------------12-|
|----------------------------------------|
|----------------------------------------|
|----------------------------------------|

Guitar 1 - Distortion (0:47)

|-15--12------------------------------12-|
|---------15--12-------12b--------12-----|
|-----------------15b--15b----15---------|
|----------------------------------------|
|----------------------------------------|
|----------------------------------------|

Guitar 2 - Distortion (0:47)

|-15--12----------------------12--15--12-|
|---------15--12-------12b---------------|
|-----------------15b--15b---------------|
|----------------------------------------|
|----------------------------------------|
|----------------------------------------|

Guitar 1 - Distortion (0:50)

|-15--12------------------------------12-|
|---------15--12-------12b--------12-----|
|-----------------15b--15b----15---------|
|----------------------------------------|
|----------------------------------------|
|----------------------------------------|

Guitar 2 - Distortion (0:50)

|-15--12-----------------------------12-|
|---------15--12-------12b--------------|
|-----------------15b--15b----15p16-----|
|---------------------------------------|
|---------------------------------------|
|---------------------------------------|

Guitar 1 - Distortion (0:54)

|-15--12------------------------------12-|
|---------15--12-------12b--------12-----|
|-----------------15b--15b----15---------|
|----------------------------------------|
|----------------------------------------|
|----------------------------------------|

Guitar 2 - Distortion (0:54)

|-15--12------------------------------12-|
|---------15--12-------12b---------------|
|-----------------15b--15b---------------|
|----------------------------------------|
|----------------------------------------|
|----------------------------------------|

Guitar 1 - Distortion (0:57)

|-15--12------------------------------12-|
|---------15--12-------12b--------12-----|
|-----------------15b--15b----15---------|
|----------------------------------------|
|----------------------------------------|
|----------------------------------------|

Guitar 2 - Distortion (0:57)

|-15--12------------------------------12-|
|---------15--12-------12b-----12p15-----|
|-----------------15b--15b---------------|
|----------------------------------------|
|----------------------------------------|
|----------------------------------------|

Guitar 1 - Distortion (1:01)

|----------------------------------------|
|-15--12------12--12b---12b----12b---12b-|
|---------15------15b---15b----15b---15b-|
|----------------------------------------|
|----------------------------------------|
|----------------------------------------|

Guitar 2 - Distortion (1:01)

|-15--12------------------------------12-|
|---------15--12-------12b-----12p15-----|
|-----------------15b--15b---------------|
|----------------------------------------|
|----------------------------------------|
|----------------------------------------|

Guitar 1 - Distortion (1:04)

|----------------------------------------|
|-15--12------12--12b---12b----12b---12b-|
|---------15------15b---15b----15b---15b-|
|----------------------------------------|
|----------------------------------------|
|----------------------------------------|

Guitar 2 - Distortion (1:04)

|-15--12-------------------------------------12p15-|
|---------15--12--15b--12b--------12--12p15--------|
|-----------------15b--15b----15-------------------|
|--------------------------------------------------|
|--------------------------------------------------|
|--------------------------------------------------|

Guitar 1 - Distortion (1:09)

|---------15--12----------15--12---------|
|-----------------15--12----------15--12-|
|----------------------------------------|
|----------------------------------------|
|----------------------------------------|
|----------------------------------------|

Guitar 2 - Distortion (1:08)

|-15--12------------------------------12-|
|---------15--12-------12b--------12-----|
|-----------------15b--15b----15---------|
|----------------------------------------|
|----------------------------------------|
|----------------------------------------|

Guitar 3 - Distortion (1:08)

|-15--12------------------------------12-|
|---------15--12-------12b--------12-----|
|-----------------15b--15b----15---------|
|----------------------------------------|
|----------------------------------------|
|----------------------------------------|

Guitar 1 - Distortion (1:11)

|-15--12----------15--12----------15--12-|
|---------15--12----------15--12---------|
|----------------------------------------|
|----------------------------------------|
|----------------------------------------|
|----------------------------------------|

Guitar 2 - Distortion (1:11)

|-15--12------------------------------12-|
|---------15--12-------12b--------12-----|
|-----------------15b--15b----15---------|
|----------------------------------------|
|----------------------------------------|
|----------------------------------------|

Guitar 3 - Distortion (1:11)

|-15--12------------------------------12-|
|---------15--12-------12b--------12-----|
|-----------------15b--15b----15---------|
|----------------------------------------|
|----------------------------------------|
|----------------------------------------|

Guitar 1 - Distortion (1:15)

|-15--12----------15--12----------15--12-|
|---------15--12----------15--12---------|
|----------------------------------------|
|----------------------------------------|
|----------------------------------------|
|----------------------------------------|

Guitar 2 - Distortion (1:15)

|-15--12---------------------------------|
|---------15--12-------12b--------12-----|
|-----------------15b--15b----15---------|
|----------------------------------------|
|----------------------------------------|
|----------------------------------------|

Guitar 3 - Distortion (1:15)

|-15--12------------------------------12-|
|---------15--12-------12b--------12-----|
|-----------------15b--15b----15---------|
|----------------------------------------|
|----------------------------------------|
|----------------------------------------|

Guitar 1 - Distortion (1:22)

|-15--12----------15--12----------15--12-|
|---------15--12----------15--12---------|
|----------------------------------------|
|----------------------------------------|
|----------------------------------------|
|----------------------------------------|

Guitar 2 - Distortion (1:22)

|-15--12------------------------------12-|
|---------15--12-------12b--------12-----|
|-----------------15b--15b----15---------|
|----------------------------------------|
|----------------------------------------|
|----------------------------------------|

Guitar 3 - Distortion (1:22)

|-15--12------------------------------12-|
|---------15--12-------12b--------12-----|
|-----------------15b--15b----15---------|
|----------------------------------------|
|----------------------------------------|
|----------------------------------------|

Guitar 1 - Distortion (1:26)

|-15--12----------15--12----------15--12-|
|---------15--12----------15--12---------|
|----------------------------------------|
|----------------------------------------|
|----------------------------------------|
|----------------------------------------|

Guitar 2 - Distortion (1:26)

|-15--12------------------------------12-|
|---------15--12-------12b--------12-----|
|-----------------15b--15b----15---------|
|----------------------------------------|
|----------------------------------------|
|----------------------------------------|

Guitar 3 - Distortion (1:26)

|-15--12------------------------------12-|
|---------15--12-------12b--------12-----|
|-----------------15b--15b----15---------|
|----------------------------------------|
|----------------------------------------|
|----------------------------------------|

Guitar 1 - Distortion (1:29)

|-15--12----------15--12----------15--12-|
|---------15--12----------15--12---------|
|----------------------------------------|
|----------------------------------------|
|----------------------------------------|
|----------------------------------------|

Guitar 2 - Distortion (1:29)

|---------------------------------12--12-|
|-----------------------------12---------|
|-------------------------15-------------|
|----------------------------------------|
|----------------------------------------|
|----------------------------------------|

Guitar 3 - Distortion (1:29)

|-15--12------------------------------12-|
|---------15--12-------12b--------12-----|
|-----------------15b--15b----15---------|
|----------------------------------------|
|----------------------------------------|
|----------------------------------------|

Guitar 1 - Distortion (1:32)

|-15--12----------15--12----------15--12-|
|---------15--12----------15--12---------|
|----------------------------------------|
|----------------------------------------|
|----------------------------------------|
|----------------------------------------|

Guitar 2 - Distortion (1:32)

|-15--12------------------------------12-|
|---------15--12-------12b--------12-----|
|-----------------15b--15b----15---------|
|----------------------------------------|
|----------------------------------------|
|----------------------------------------|

Guitar 3 - Distortion (1:32)

|-15--12------------------------------12-|
|---------15--12-------12b--------12-----|
|-----------------15b--15b----15---------|
|----------------------------------------|
|----------------------------------------|
|----------------------------------------|

Guitar 1 - Distortion (1:36)

|-15--12------------------------------12-|
|---------15--12-------12b--------12-----|
|-----------------15b--15b----15---------|
|----------------------------------------|
|----------------------------------------|
|----------------------------------------|

Guitar 2 - Distortion (1:36)

|-15--12------------------------------12-|
|---------15--12-------12b--------12-----|
|-----------------15b--15b----15---------|
|----------------------------------------|
|----------------------------------------|
|----------------------------------------|

Guitar 1 - Distortion (1:39)

|-15--12------------------------------12-|
|---------15--12-------12b--------12-----|
|-----------------15b--15b----15---------|
|----------------------------------------|
|----------------------------------------|
|----------------------------------------|

Guitar 3 - Distortion (1:40)

|----|
|-12-|
|----|
|----|
|----|
|----|

Guitar 1 - Distortion (1:43)

|-15--12------------------------------12-|
|---------15--12-------12b--------12-----|
|-----------------15b--15b----15---------|
|----------------------------------------|
|----------------------------------------|
|----------------------------------------|

Guitar 3 - Distortion (1:44)

|----|
|-12-|
|----|
|----|
|----|
|----|

Guitar 2 - Distortion (1:45)

|---|
|---|
|-/-|
|---|
|---|
|---|

Guitar 1 - Distortion (1:47)

|-15--12------------------------------12-|
|---------15--12-------12b--------12-----|
|-----------------15b--15b----15---------|
|----------------------------------------|
|----------------------------------------|
|----------------------------------------|

Guitar 3 - Distortion (1:48)

|----|
|-12-|
|----|
|----|
|----|
|----|

Guitar 2 - Distortion (1:48)

|-------------|
|-------------|
|----------|
|-------------|
|-------------|
|-------------|

Guitar 1 - Distortion (1:51)

|-15--12------------------------------12-|
|---------15--12-------12b--------12-----|
|-----------------15b--15b----15---------|
|----------------------------------------|
|----------------------------------------|
|----------------------------------------|

Guitar 1 - Distortion (1:56)

|-15--12------------------------------12-(let ring)-15-|
|---------15--12-------12b--------12--------------------|
|-----------------15b--15b----15------------------------|
|-------------------------------------------------------|
|-------------------------------------------------------|
|-------------------------------------------------------|

ĂŽnscrie-te la newsletter


Join the ranks ! LIKE us on Facebook