Vertebraille (ver2) Tab - Norma Jean




just the main riff & outro

tuned drop C#

Db Ab Db Gb Bb Eb


|--------------------------------------------------|
|--------------------------------------------------|
|--------------------------------------------------|
|--------------------------------------------------|
|--5----5----5----5---5---5-----5--5---5-----------|
|-----3--2------3--2---------3---2----3-2----------|

then play an octave up like this


|--------------------------------------------------|
|--------------------------------------------------|
|--------------------------------------------------|
|--------------------------------------------------|
|--17----17----17-17-----17----17-----17-----------|
|-----15---14---------15----14----13-----14--------|



outro


|------------------------------------------------------------|
|------------------------------------------------------------|
|------------------------------------------------------------|
|------------------------------------------------------------|
|-----------9-9-9-9--5-5-5-5--7-7-7-------6---6---6----------|
|--0-0-0-0--------------------------0-0-0---0---0---000--000-|
                                                    pm   pm
                                                    (triplets)

ĂŽnscrie-te la newsletter


Join the ranks ! LIKE us on Facebook