Torn Intro Tab - Novembers Doom






-----------------------------|
--0---3--5--3----------------|
--0---0--0--0----------------|
--0---0--0--0----------------|    3X
-----------------------------|
-----------------------------|

--------------------------|
----7-5-7-7---------------|
----0-0-0-0---------------|
----0-0-0-0---------------|       2X
--------------------------|
--------------------------|



---------------0------------------|
----9--9------0-------------------|
----8--8-----0--------------------|
----0--0----0---------------------|
-----------0----------------------|
----------0-----------------------|






Like us on Facebook