Critical Mass Tab - NUCLEAR ASSAULT




Critical Mass - Nuclear Assault
Q=194
4/4
      PM------------------|             ~~~
|-------||-------------------------------------|
|-------||o------------------------------------|
|-------||-------------------------------------|
|-------||------------------7s6-7-10-9-(9)-----|   a
|-------||o-5-------4-------5s4-5--8-7-(7)-----|
|-6-5-4-||--3-0-0-0-2-0-0-0----------------5-4-|


                              ~~~         4x
|-----------------------------------------||
|----------------------------------------o||
|-----------------------------------------||
|-----------------7s6-7-10-9-(9)----------||
|-5-------4-------5s4-5--8-7-(7)---------o||
|-3-0-0-0-2-0-0-0------------------6-5-4--||


                                                         4x
||-------------------------------------------------------||
||o-----------------------------------------------------o||
||-------------------------------------------------------||
||--2----------4-------------2----------4----------------||   b
||o-2----------2-------------2----------2---------------o||
||--0--0-0-2-3------3--2--0--0--0-0-2-3------3--0--2-----||

                                                           x4
||---------------------------------------------------------||
||o-------------------------------------------------------o||
||------------------------------------------------------2--||   c
||--------------------3---------------------------3-----2--||
||o-----3-------------1-------------3-------------1-----0-o|| 
||--0-0-1-0-0-0-0-0-0---0-0-0-0-0-0-1-0-0-0-0-0-0---0-0----||


Order: A,B,C,B,C,B,solo(A),C,B,A.

ĂŽnscrie-te la newsletter


Join the ranks ! LIKE us on Facebook