Hang The Pope Bass Tab - NUCLEAR ASSAULT




Nuclear Assault - Hang The Pope

(Listen to the song first to get the general idea)

Intro:                                                              x2
|--------------------------------------------------------------------|
|--------------------------------------------------------------------|
|--------------------------------------------------------------------|
|-5-5-4-4-5-5-7-7---5-5-4-4-5-5-7-7---5-5-4-4-5-5-7-7--5-5-4-4-2-2-0-|

Verse:                                                              x4
|--------------------------------------------------------------------|
|--------------------------------------------------------------------|
|--------------------------------------------------------------------|
|-5-5-4-4-5-5-7-7---5-5-4-4-5-5-7-7---5-5-4-4-5-5-7-7--5-5-4-4-2-2-0-|
  "Hang The Pope..."

Chorus:                                                              x2
|---------------------------------------------------------------------|
|---------------------------------------------------------------------|
|---------------------------------------------------------------------|
|-7-7-7-7-7-7-7-7--4-4-4-4-5-5-5-5---7-7-7-7-7-7-7-7--3-3-3-3-5-5-5-5-|
  "Lets Go To The Vetican..."

Play Verse ("Hang The Pope...")
Play Chorus ("Lets Go To The Vetican...")
 
Ending:
|------------------------------------------------------------------------|
|------------------------------------------------------------------------|
|------------------------------------------------------------------------|
|-5-5-4-4-5-5-7-7---5-5-4-4-5-5-7-7---5-5-4-4-5-5-7-7---5-5-4-4-2-2-5~~--|

ĂŽnscrie-te la newsletter


Join the ranks ! LIKE us on Facebook