Forecast Fascist Future Intro Tab - Of Montreal




First tab...go easy.  Tried to find it online, no luck...but I think this sounds pretty

 Tabbed from a live, acoustic performance:
http://video.google.com/videoplay?docid=2437809123086301890&q=of+montreal+kevin+solo
Tabbed by Spotts.

|-6-6-6-6-x-6-6-x-x-8--8--8--|
|-6-6-6-6-x-6-6-x-x-8--8--8--|
|-7-7-7-7-x-8-8-x-x-10-10-10-|
|-8-8-8-8-x-8-8-x-x-10-10-10-|
|-8-8-8-6-x-6-6-x-x-8--8--8--|
|-6-6-6-6-x-----x-x----------|

|-6-6-6-6--2-2-2-2--4-4-4-4-4--2-2-----|
|-6-6-6-6--2-2-2-2--4-4-4-4-4--2-2-----|
|-7-7-7-7--3-3-3-3--6-6-6-6-6--3-3-----|
|-8-8-8-8--4-4-4-4--6-6-6-6-6--4-4-----|
|-8-8-8-6--4-4-4-4--4-4-4-4-4--4-4-----|
|-6-6-6-6--2-2-2-2-------------2-2-----|

Just listen to the song for the right rhythm

ĂŽnscrie-te la newsletter


Join the ranks ! LIKE us on Facebook