Forecast Fascist Future Tab - Of Montreal




"Forecast Fascist Future" by Of Montreal
From the album "The Sunlandic Twins"
Tabbed by Kunal P. (freedoggy77@gmail.com)

Intro-

e-----------------------------------------------------------------|
B-----------------------------------------------------------------|
G---------------------------------------6-6-6-6-X---------7-7-7-7-|
D-8-8-8-8-X-5-5-5-5-X-8-8-8-8-X-4-4-4-4-6-6-6-6-X-4-4-4-4-7-7-7-7-|
A-8-8-8-8-X-5-5-5-5-X-8-8-8-8-X-4-4-4-4-4-4-4-4-X-4-4-4-4-5-5-5-5-|
E-6-6-6-6-X-3-3-3-3-X-6-6-6-6-X-2-2-2-2-----------2-2-2-2---------|
                      ___________________________________________disortion

e---------|
B-11p10---|
G------10-|
D---------|
A---------| it's pretty much this with a few other notes repeated
E---------|

Chorus (at end of singing, disorted)-

e---------|
B---------|
G---------|
D-88888888|
A-88888888|
E-66666666|

Interlude (disorted)-

e--|
B--|
G--|
D--|
A--|
E-6| x 50

later...

e---------------------------|
B---------------------------|
G---------------------------|
D---8-8----8-8--------------|
A---8-8----8-8--12-12-12-12-|
E-5-6-6--5-6-6--10-10-10-10-|

that's pretty much the whole song, good song, just not enough guitar
ĂŽnscrie-te la newsletter


Join the ranks ! LIKE us on Facebook