Heimdalsgate Like A Promethean Curse Tab - Of Montreal




Song-Heimdalsgate Like A Promethean Curse
Artist-of Montreal
Album-Hissing Fauna, Are You the Destroyer?(2007 Polyvinyl Records)

Standard Tuning

   *Key*      
/-Strum down  
-Strum up 


*Intro*
[On Synth]
"I'm in a crisis..."


Guitar comes in on
(Follows synth, just basic arpeggios of 
the chords used in the song.)

(0:27)

E|-----7------------------7---------------------------|
B|-9------------------9-------------------------------|
G|---9---9-8-9---8------9---9-8-9---------------------|
D|-------------9------------------9-8-----------------|
A|----------------------------------------------------|
E|----------------------------------------------------|

E|---------------2------------------------------------|
B|-----5-------4---4------5----9-7---7----------------|
G|---6---6---4----------6---6------9------------------|
D|-7------------------7-------------------------------|
A|----------------------------------------------------|
E|----------------------------------------------------|

*Chorus*

"Chemicals don't strangle my pen..."

E|-7-7-7-7-7-7-7-7------7-7-7-7-7-7-7-7---------------|
B|-9-9-9-9-9-9-9-9------7-7-7-7-7-7-7-7---------------|
G|-9-9-9-9-9-9-9-9------8-8-8-8-8-8-8-8---------------|
D|-9-9-9-9-9-9-9-9------9-9-9-9-9-9-9-9---------------|
A|-7-7-7-7-7-7-7-7------9-9-9-9-9-9-9-9---------------|
E|-7-7-7-7-7-7-7-7------7-7-7-7-7-7-7-7---------------|
   /  /  /  /       /  /  /  / 

E|-7-7-7-7-7-7-7-7------7-7-7-7-7-7-7-7---------------|
B|-9-9-9-9-9-9-9-9------7-7-7-7-7-7-7-7---------------|
G|-9-9-9-9-9-9-9-9------8-8-8-8-8-8-8-8---------------|
D|-9-9-9-9-9-9-9-9------9-9-9-9-9-9-9-9---------------|
A|-7-7-7-7-7-7-7-7------9-9-9-9-9-9-9-9---------------|
E|-7-7-7-7-7-7-7-7------7-7-7-7-7-7-7-7---------------|
   /  /  /  /       /  /  /  / 

E|-5-5-5-5-5-5-5-5------2-2-2-2-2-2-2-2---------------|
B|-5-5-5-5-5-5-5-5------4-4-4-4-4-4-4-4---------------|
G|-6-6-6-6-6-6-6-6------4-4-4-4-4-4-4-4---------------|
D|-7-7-7-7-7-7-7-7------4-4-4-4-4-4-4-4---------------|
A|-7-7-7-7-7-7-7-7------2-2-2-2-2-2-2-2---------------|
E|-5-5-5-5-5-5-5-5------2-2-2-2-2-2-2-2---------------|
   /  /  /  /       /  /  /  / 

E|-2-2-2-2-2-2-2-2------7-7-7-7-7-7-7-7---------------|
B|-4-4-4-4-4-4-4-4------9-9-9-9-9-9-9-9---------------|
G|-4-4-4-4-4-4-4-4------9-9-9-9-9-9-9-9---------------|
D|-4-4-4-4-4-4-4-4------9-9-9-9-9-9-9-9---------------|
A|-2-2-2-2-2-2-2-2------7-7-7-7-7-7-7-7---------------|
E|-2-2-2-2-2-2-2-2------7-7-7-7-7-7-7-7---------------|
   /  /  /  /       /  /  /  / 

-------------------------------------------------------
Song Order
-----------
(0:27)Intro
(0:52)Chorus
(1:05)Intro
(2:00)Chorus
(2:13)Intro
------------
ĂŽnscrie-te la newsletter


Join the ranks ! LIKE us on Facebook