Our Riotous Defects - Of Montreal




(piano)
F/C  C7             Dm
You are such a crazy girl
F
You're such a crazy girl
Bb         Bbaddb5
And I don't know why
Gm                   F       Am    Dm  Gm
I even try to make you love me
C               C7
I want it babe. You are just a
(full band)
Dm
Crazy girl. You're so
F
Crazy girl
Bb
I don't know why
Gm
I even try
F               Am              Dm
To help you (can't help you, can't help you)
Gm
(spoken word)
F                                    Am
When I first met you at that Al-Anon meeting
F
And you made that reference to 'all your goodies are gone'
Bb
And even sang a verse.
Am
I was amazed how husky your singing voice was.
I wanted to talk to you so badly, but
C                                      C7
I didn't know how to come on, cause you've got that kind of beauty that makes people nervous.
F                            Am
I know it's f****d but before we got together I even hooked up with one of your cousins
F                                   Bb
Just to feel somehow closer to you.
Am
Cause I knew you like guys were best friends and you talked every day
And it was thrilling to touch something that had touched you
C                              C7
In my head you were like this goddess, but in fact you're just a
Dm
Crazy girl. You're just a
F
Crazy girl
Bb
I don't know why
Gm
I even try
F                 Am               Dm
To understand you  (can't stand you, can't stand you)
Gm
You're a*s is
Dm
Crazy girl. You're so
F
Crazy girl
Bb
I don't know why
Gm
I even try
F                    Am                     Dm
To relate to you (can't wait for you, it's too late for you)
Gm
F                            Am                                                F
My god I should have realised on our second date when you dragged me in to the bathroom
Bb
At tanika's house and screamed at me for like twenty minutes because I
Am
Contradicted you in front of your friends. I was like ... oh...
C                                                 C7
And then later that night at my apartment as punishment you killed my beta fish
Just threw it out the window
F                                     Am
I did everything I could to make you happy
F
I participated in all your protests
Bb
Supported your stupid little blog
Am
Got a bow-flex. Wore coloured contacts to match your dresses
C
Whatever your eyes caught, I bought
C7
But still we fought. Like Ike and Tina, but in reverse, cause you're so
Dm
Crazy girl. You're just too
F
Crazy girl
Bb
I don't know why
Gm
I even try
F             Am      Dm
To understand you
Gm
(well?)    I think you're
Dm
Crazy girl. You're so
F
Crazy girl
Bb
I don't know why
Gm
I even try
F                  Am            Dm
To make sense of you (sense of you, sense of you) Tell me why
Gm
Someone tell me why my heart's real weird for you still
Dm       
F
Bb     Gm 
I was like crazy fan over you
F                 Am              Dm
Like i'm all star struck over you, like I'm getting handcuffed over you
Gm                             Gm
now it's only f****d up
D
D
G
Em
Em
D
D
My frame works in constant confusion
D
I can’t peel away the 
D
flowers of this psychic disturbance
G
and our riotous defects
Em
slow defects
Em
slow defects
D
D
G
Em
Em
D
(0:00)
Piano (mainly just the chords, the rhythm is fairly difficult to transcribe)
F/C       C7              Dm7           F           F/G
e|-13------------------------5---5-6-5-----5---5-6-5---5---|
b|-13-----13-17--17--17--17--6---6-8-6-----6---6-8-6---6---|
g|-14--14-14-15--15--15--15--5---5---5-----5---5---5---5---|
d|-----15--------------------0-------0---2-3-------3---5---|
a|-15--15----15--15--15--15--------------------------------|
e|---------------------------------------------------------|
Bb      Bbaddb5 Gm          F     Am      Dm        Gm
e|-10--10--12--12--6--6--6--6--5--5--8---8---13---13---18---18---|
b|-11--11--11--11--8--8--8--8--6--6--10--10--15---15---20---20---|
g|-10--10--10--10--7--7--7--7--5--5--9---9---14---14---19---19---|
d|-8---8---8---8---5--5--5--5--3--3--7---7---12---12---17---17---|
a|---------------------------------------------------------------|
e|---------------------------------------------------------------|
C       Csus4    C7
e|-12--12--13-13----12--12--12--12---|
b|-13--13--13-13----11--11--11--11---|
g|-12--12--12-12----12--12--12--12---|
d|-10--10--10-10-10-10--10--10--10---|
a|-----------------------------------|
e|-----------------------------------|
(0:30)
Keyboard
Dm7              F               Bb        Gm
e|--------------------------5-------10--------6-------|
b|-6--------6-------6-------6---6---11---11---8---8---|
g|-5---7----5---7---5---5---5---5---10---10---7---7---|
d|-7---7----7---7---7---7-------7--------12-------8---|
a|-----8--------8-------8-----------------------------|
e|----------------------------------------------------|
F    Am   Dm       Gm
e|-----------13-------18-------18-------|
b|-10---13---15-------20-------20-------|
g|-10---14---14-------19-------19-------|
d|-10---14------------------------------|
a|--------------------------------------|
e|--------------------------------------|
(0:46)
Guitar 1
Gm
e|-17-15--17-------------------------15--17---------------------|
b|-------------------------------18-----------------------------|
g|--------------------------------------------------------------|
d|--------------------------------------------------------------|
a|--------------------------------------------------------------|
e|--------------------------------------------------------------|
Guitar 2
e|--------------------------------------------------------------|
b|----1515151515--1515--15---15------1515151515--1515--15---15--|
g|----1515151515--1515--15---15------1515151515--1515--15---15--|
d|----------------------17---17------------------------17---17--|
a|--------------------------------------------------------------|
e|--------------------------------------------------------------|
(0:50)
Keyboard
F       Am    F       Bb     Am
e|-----------------------------------------------|
b|-6---6-5---------6---6-5----------------5------|
g|---------7---------------7-------------5-------|
d|-----------7---------------8--8--10-7----------|
a|-----------------------------------------------|
e|-----------------------------------------------|
C             C7
e|------------------------------------|
b|-5-5--5--6-5---5-5--5--6-5----------|
g|------------------------------------|
d|------------------------------------|
a|------------------------------------|
e|------------------------------------|
x2
(4:40)
Keyboard
D               D                     G              Em   Em
e|-----------------------------------------------------------------------------------|
b|----5---5-3-5-3-----5/7\5/7\5/7\(5/7)-----3h5p3-5-3-5----------------5-------------|
g|------------------------------------------------------4--------4-6-7---7-6-4-6-----|
d|-------------------------------------------------------------------------------7---|
a|-----------------------------------------------------------------------------------|
e|----------------------------------------------------------------------------------|
ĂŽnscrie-te la newsletter


Join the ranks ! LIKE us on Facebook