Rapture Rapes The Muses Bass Tab - Of Montreal




SONG: Rapture Rapes the Muses
ARTIST: Of Montreal
ALBUM: Satanic Panic in the Attic

kingurth@gmail.com

Im pretty sure the notes are 100% correct.

Very fun song to play. Easy once you get the notes down, so keep trying! Listen to the song for the rhythm.

/ = Slide Down
 = Slide Up


G|--------------------------------
D|--------------------------------
A|-----9-9-7-7-5-5-----5-5-7-7-9/-
E|-7-7-------------7-7------------

G|-------------------------------
D|---------5-5---------5-5-7-----
A|-----5-5-----5-5-7-7-----------
E|-3-3-----------------------5-6-

X3

Then...

G|--------------------
D|-----5--------------
A|-7-7---7/---------5-
E|----------3-3-57---

G|----------------------
D|-----5----------------
A|-7-7---7/---5-----5---
E|----------3---3-5---5-

Play that segment once, before going into the main part of the verse...

G|----------------------------------
D|---------------12-----------------
A|------------------12----10-10-12/-
E|-7-7-7-9-10-10-------10-----------

Repeat that riff until the song shifts back to the riff from the intro, then back into
the verse, and then youre done!
ĂŽnscrie-te la newsletter


Join the ranks ! LIKE us on Facebook