Satanic Panic In The Attic Album Tab - Of Montreal




of Montreal

Satanic Panic in the Attic

1. Disconnect the Dots
2. Lysergic Bliss 
3. Will You Come and Fetch Me
4. My British Tour Diary
5. Rapture Rapes the Muses
6. Eros' Entropic Tundra
7. City Bird
8. Erroneous Escape into Erik Eckles
9. Chrissy Kiss the Corpse
10. Your Magic Is Working
11. Climb the Ladder
12. How Lester Lost His Wife
13. Spike the Senses 
14. Vegan in Furs

-----------------------------------------------------------------------
1. Disconnect the Dots

F#
Come disconnect the dots with me poppet
Come disconnect the dots
Come disconnect the dots with me poppet
Come disconnect the dots

        C#m7
It's so beautiful
    Bmaj7
Our lunacy
        C#m7
It's so beautiful
E
Ahhh


Come disconnect the dots with me poppet
Come disconnect the dots
Come disconnect the dots with me poppet
Come disconnect the dots

It's so beautiful
Our lunacy
It's so beautiful
Ahhh

(instrumental break)
G#m   D#m/F#  E  Em/G
G#m   D#m/F#  E  Em/G  B  F#

Come disconnect the dots with me poppet
Come disconnect the dots
Come disconnect the dots with me poppet
Come disconnect the dots

It's so beautiful
Our lunacy
It's so beautiful
Ahhh

It's so beautiful
Our lunacy
It's so beautiful
Ahhh

(instrumental break)
G#m   D#m/F#  E  Em/G
G#m   D#m/F#  E  Em/G  B
Em    Emaj7   B



Intro:(0:04)

Guitar(distorted)
e|--------|--------|--------------|-----------------|--------------|
b|--------|--------|--------------|-----------------|--------------|
g|--------|--------|--------------|-----------------|--------------|
d|-4------|----4-5-|-6-6---6-6--8-|-9--9---9--9--11-|-4-4---4-4--5-|
a|-4(hold)|----4-5-|-6-6---6-6--8-|-9--9---9--9--11-|-4-4---4-4--5-|
e|-2------|----2-3-|-4-4---4-4--6-|-7--7---7--7--9--|-2-2---2-2--3-|
   1 2 3 4 1 2 3 4   1   2   3  4   1    2    3  4    1   2   3  4
Keyboard
e|-2------|----2-3-|-6-8---6-8--9-|-9--11--9--11-14-|-7-9---7-9----|
b|-2------|----2-3-|-7-9---7-9--11|-11-12--11-12-14-|-9-11--9-11---|
g|--------|--------|--------------|-----------------|--------------|
d|-4------|----4-5-|-8-10--8-10-11|-11-13--11-13-16-|-9-11--9-11---|
a|--------|--------|--------------|-----------------|--------------|
e|--------|--------|--------------|-----------------|--------------|


e|--------------|-----------------|--------------|--------------|
b|--------------|-----------------|--------------|--------------|
g|--------------|-----------------|--------------|--------------|
d|-6-6---6-6--8-|-9--9---9--9--11-|-4-4---4-4--5-|-6-6---6-6--8-|
a|-6-6---6-6--8-|-9--9---9--9--11-|-4-4---4-4--5-|-6-6---6-6--8-|
e|-4-4---4-4--6-|-7--7---7--7--9--|-2-2---2-2--3-|-4-4---4-4--6-|
   1   2   3  4   1    2    3  4    1   2   3  4   1   2   3  4

e|-6-8---6-8--9-|-9--11--9--11-14-|-7-9---7-9----|-6-8---6-8--9-|
b|-7-9---7-9--11|-11-12--11-12-14-|-9-11--9-11---|-7-9---7-9--11|
g|--------------|-----------------|--------------|--------------|
d|-8-10--8-10-11|-11-13--11-13-16-|-9-11--9-11---|-8-10--8-10-11|
a|--------------|-----------------|--------------|--------------|
e|--------------|-----------------|--------------|--------------|


e|-----------------|--------------|--------------|-----------------|
b|-----------------|--------------|--------------|-----------------|
g|-----------------|--------------|--------------|-----------------|
d|-9--9---9--9--11-|-4-4---4-4--5-|-6-6---6-6--8-|-9--9---9--9--11-|
a|-9--9---9--9--11-|-4-4---4-4--5-|-6-6---6-6--8-|-9--9---9--9--11-|
e|-7--7---7--7--9--|-2-2---2-2--3-|-4-4---4-4--6-|-7--7---7--7--9--|
   1    2    3  4    1   2   3  4   1   2   3  4   1    2    3  4

e|-9--11--9--11-14-|-7-9---7-9----|-6-8---6-8--9-|-9--11--9--11-14(hold)|
b|-11-12--11-12-14-|-9-11--9-11---|-7-9---7-9--11|-11-12--11-12-14------|
g|-----------------|--------------|--------------|----------------------|
d|-11-13--11-13-16-|-9-11--9-11---|-8-10--8-10-11|-11-13--11-13-16------|
a|-----------------|--------------|--------------|----------------------|
e|-----------------|--------------|--------------|----------------------|


Verse(0:26)

Guitar(clean)
   F#
e|-2--------------------------------------|-2---------------------|
b|-2--------------------------------------|-2---------------------|
g|-3--------------------------------------|-3---------------------|
d|-4--------------------------------------|-4---------------------|
a|-4--------------------------------------|-4---------------------|
e|-2--------------------------------------|-2---------------------|
   Come disconnect the dots with me poppet, come disconnect the dots

   F#
e|-2--------------------------------------|-2---------------------|
b|-2--------------------------------------|-2---------------------|
g|-3--------------------------------------|-3---------------------|
d|-4--------------------------------------|-4---------------------|
a|-4--------------------------------------|-4---------------------|
e|-2--------------------------------------|-2---------------------|
   Come disconnect the dots with me poppet, come disconnect the dots


Chorus:(0:40)
          C#m7                Bmaj7
e|------|-4-----------------|-2-----------------------------|
b|------|-5-----------------|-4-----------------------------|
g|------|-4-----------------|-3-----------------------------|
d|------|-6-----------------|-4-----------------------------|
a|------|-4-----------------|-2-----------------------------|
e|------|-------------------|-------------------------------|
  It's so beautiful       Our lunacy                 It's so 

   C#m7                 E
e|-4------------------|-4----------------------------|
b|-5------------------|-5----------------------------|
g|-4------------------|-4----------------------------|
d|-6------------------|-6----------------------------|
a|-4------------------|-7----------------------------|
e|--------------------|------------------------------|
   beautiful            Ahhh



Verse(0:54)

Chorus(1:08)

Instrumental:(1:22)


Guitar(same rhythm as verse chords)          
   G#m  D#m/F#  E    Em/G G#m  D#m/F#  E    Em/G  B   F#(back to verse)
e|-4----2-------0----0----4----2-------0----0-----2-|-2-----|
b|-4----4-------0----0----4----4-------0----0-----4-|-2-----|
g|-4----3-------1----0----4----3-------1----0-----4-|-3-----|
d|-6----4-------2----2----6----4-------2----2-----4-|-4-----|
a|-6----x-------2----2----6----x-------2----2-----2-|-4-----|
e|-4----2-------0----3----4----2-------0----3-------|-2-----|


Verse(2:04)

Chorus(2:19) x2

Instrumental(2:46)

Alternate ending to instrumental:(3:13)

Guitar
   E   Em/G  B   Em  Emaj7  B     
e|-0---0-----2-|-3---4------7-|--------------|
b|-0---0-----4-|-5---4------7-|--------------|
g|-1---0-----4-|-4---4------8-|--------------|
d|-2---2-----4-|-5---6------9-|--------4---5-|
a|-2---2-----2-|-x---x------9-|--------4---5-|
e|-0---3-------|-0---0------7-|--------2---3-|
                                1  2 3   4  

Outro:(3:21)

Guitar, keyboard and bass are the same as intro

Second Keyboard:(3:31)                    (repeat till fade)
e|---|.-2s4-----2-|-2s9------|-4s6-----2-|-2s4-------|-2s9---2-|-4s6----.|
b|-4-|.-----------|--------4-|-----------|---------4-|---------|------4-.|
g|---|.-----------|----------|-----------|-----------|---------|--------.|
d|---|.-----------|----------|-----------|-----------|---------|--------.|
a|---|.-----------|----------|-----------|-----------|---------|--------.|
e|---|.-----------|----------|-----------|-----------|---------|--------.|


--------------------------------------------------------------------
2. Lysergic Bliss

A
Wearing an olive drab
                               Asus4/B
But feeling somehow inside opalescent
A
Wonder how I'm managing to smile, oh
                        Asus4/B  E  Asus4/B E
When I can't even pay my rent


Maybe it's because I've finally found
My little tulip, my Norge dear
Funny how in spite of all my woes
Life can appear rosy and clear
Rosy and clear

    C#m7               Dmaj7       
And I'm dizzy from her kiss
          Bm7           F7       E7
So vertiginous, lost in lysergic bliss

Love the way you wear your curly hair
Sanguine and spiraling, tied in a bun
Love the way it falls about your face
Mercurially gilded by the sun
If we were a pair of jigsaw puzzle pieces
We would connect so perfectly
Creating a still photo of a scene
From The Phantom of Liberty, of Liberty 
       
And I'm dizzy from her kiss
So vertiginous, lost in lysergic bliss

(Remember your breathing, children. 1,2,3,4)

Intro:(0:04)
This is probably three guitars but it's easy to play this way.

Guitar 1
   F#5                           F#7  B        D   A
e|--------|--------|--------|--------|--------|--------|
b|--------|--------|--------|2---5---|4-------|3---2---|
g|--------|--------|--------|----6---|--------|----2---|
d|4-------|4---11-s|4-------|4-------|4-------|4-------|
a|--------|--------|--------|--------|--------|--------|
e|--------|--------|--------|--------|--------|--------|
  1 2 3 4 |1 2 3 4 |1 2 3 4 |1 2 3 4 |1 2 3 4 |1 2 3 4 |
Guitar 2
e|--------|--------|--------|--------|-2-2-2-2|-4-4-0-0|
b|--------|--------|--------|--------|4-4-4-4-|3-3-2-2-|
g|--------|--------|--------|--------|--------|--------|
d|--------|--------|--------|--------|--------|--------|
a|--------|--------|--------|--------|--------|--------|
e|--------|--------|--------|--------|--------|--------|




  F#5      F#5 F5   F#5          F#7  B        F#5
e|--------|--------|--------|--------|--------|----2---|
b|2-------|2---1---|2-------|2---5---|4-------|2---2---|
g|--------|--------|--------|----6---|--------|--------|
d|4-------|4---3---|4-------|4-------|4-------|4-------|
a|--------|--------|--------|--------|--------|--------|
e|--------|--------|--------|--------|--------|--------|

e|-2-2-2-2|-2-2-1-1|-2-2-2-2|-2-2-2-2|-2-2-2-2|-2-2-2-2|
b|2-2-2-2-|2-2-1-1-|2-2-2-2-|2-2-2-2-|4-4-4-4-|2-2-2-2-|
g|--------|--------|--------|--------|--------|--------|
d|--------|--------|--------|--------|--------|--------|
a|--------|--------|--------|--------|--------|--------|
e|--------|--------|--------|--------|--------|--------|



(0:28)
   E
e|-0--------------|
b|-0--------------|
g|----------------|
d|----------------|
a|----------------|
e|----------------|
                        D                   E         D  C#mBm
e|---0------|-0--0----|-2---2---|-2--2--0-|-4---4---|---------|
b|-0--------|----0--0-|-3---3---|-3--3--0-|-5---5---|-7--5--4-|
g|------0h1-|-------1-|-2---2---|-2--2----|-4---4---|-7--6--5-|
d|----------|---------|---------|---------|---------|-7--6--5-|
a|----------|---------|---------|---------|---------|---------|
e|----------|---------|---------|---------|---------|---------|
   1 2 3  4   1 2 3 4   1 2 3 4   1 2 3 4   1 2 3 4   1 2 3 4

(0:35)
Guitar 2
   A
e|-----9---9---|-----9---9---|-----9---9--12|--9---7/97-|
b|-10--10--10--|-10--10--10--|-10--10--10-10|--10--7/97-|
g|-9-----------|-9-----------|-9----------11|--9---7/97-|
d|-------------|-------------|--------------|------------|
a|-------------|-------------|--------------|------------|
e|-------------|-------------|--------------|------------|
   1  2  3   4   1  2  3   4   1  2  3   4    1  2 3   4



Verse:(0:41)
Guitar 2
   A
e|-5-------5---|5---------5------|5---5----------|5----5-----|
b|-5-------5---|5---------5------|5---5----------|5----5-----|
g|-6-------6---|6---------6------|6---6----------|6----6-----|
d|-------------|-----------------|---------------|-----------|
a|-------------|-----------------|---------------|-----------|
e|-------------|-----------------|---------------|-----------|
   1  2    3  4|1    2    3   4  |1  2 3     4   |1  2 3 4
   Wearing an o-live drab but fee-ling somehow in-side opale-

   Asus4/B                A
e|-------0----0-----|----|5------5------|5----5------|5------5--------|
b|-------3----3-----|----|5------5------|5----5------|5------5--------|
g|-2-----2----2-----|-x4-|6------6------|6----6------|6------6--------|
d|------------------|----|--------------|------------|----------------|
a|------------------|----|--------------|------------|----------------|
e|------------------|----|--------------|------------|----------------|
   1  2    3     4        1  2   3   4  |1 2  3    4 |1   2  3    4
   scent                  Wonder how I'm mana-ging to smile, oh when I

  A                  Asus4/B  E        Asus4/B
e|5--------5--------|---0-0--|4--4-4--|0--0-0--|4--4-4--|
b|5--------5--------|---3-3--|5--5-5--|3--3-3--|5--5-5--|
g|6--------6--------|2--2-2--|4--4-4--|2--2-2--|4--4-4--|
d|------------------|--------|--------|--------|--------|
a|------------------|--------|--------|--------|--------|
e|------------------|--------|--------|--------|--------|
  1   2    3   4    |1 2 3 4 |1 2 3 4 |1 2 3 4 |1 2 3 4 
  can't ev-en pay my|  re--e--ent

Verse(1:01)
Same as above with these licks:(1:19)
Guitar
e|-----|-------|-------------|-----4---|
b|-----|----5--|-------------|--5h7----|
g|-----|-4h6---|-----4-------|---------|
d|-----|-------|--4h7--------|---------|
a|-----|-------|-------------|---------|
e|-----|-------|-------------|---------|
   cl-e-ar      Ro  -  sy and|cle- ar


Chorus:(1:22)
This is a few guitars tabbed out for one
   C#m7                    Dmaj7                    Bm7
e|-9-------|12----9-------|9-----------|-----------|7-------|----------|
b|-9-------|9-----9-------|10--------10|-----------|7---7---|----------|
g|-9-------|--------------|11-(11)-11--|9----------|7---7---|9---7-----|
d|---------|--------------|------------|-------9---|--------|9---7-----|
a|---------|--------------|------------|-----------|--------|----------|
e|---------|--------------|------------|-----------|--------|----------|
   1 2 3 4 |1  2  3    4  |1   2   3 4 |1  2   3 4 |1 2 3 4 |1 2 3    4
And I       dizzy from the kiss         so ver-tigi-nous         lost in

  F7         E
e|----------|9-10-4-7-|
b|10--------|9-7--5-7-|
g|8---------|---------|
d|10--------|---------|   last part of intro again
a|8---------|---------|
e|----------|---------|
  1 2  3 4  |1 2  3 4 
  ly-ser-gic bliss


Verse(1:38)
With these changes in the last few lines

Guitar
e|-----|-----5-7-|-----5-7-|-----5-7-|-----5-7-|
b|-----|-----5-5-|-----5-5-|-----5-5-|-----5-5-|
g|-----|-----7-7-|-----7-7-|-----7-7-|-----7-7-|
d|-----|---------|---------|---------|---------|
a|-----|---------|---------|---------|---------|
e|-----|-7-7-----|-7-7-----|-7-7-----|-7-7-----|
perfect-ly


And different timing and style for the Asus4/B and E thing on the 'of Liberty' line.

Chorus:(2:19)

Vocal instrumental based around F#

Keyboard part 1 in outro(3:25)
e|-7---4-5---2-4---|-7---4-5---2-4---0-2---------------|
b|-9---5-7---2-5---|-9---5-7---2-5---0-2-------5(hold)-|
g|-----------------|-----------------------6---4-------|
d|-----------------|-----------------------6-----7-4-7-|
a|-----------------|-----------------------------------|
e|-----------------|-----------------------------------|


e|-7---4-5---2-4---0-2-------------|-7---4-5---2-4---0-2-----------|
b|-9---5-7---2-5---0-2-----5-------|-9---5-7---2-5---0-2-----5-----|
g|-----------------------6-4-6-4---|-----------------------6-4-6-4-|
d|-----------------------6---7-4-6-|-----------------------6---6-4-|
a|---------------------------------|-------------------------------|
e|---------------------------------|-------------------------------|

Keyboard part 2 in outro(3:42)
e|-------------------------|---------------------------------|
b|-------------------------|---------------------------------|
g|-66-66-66-66-6-6-6-4-2-4-|-66-66-66-66-6-6-6-4-2-4-2-1-----|
d|-------------------------|-----------------------------4-2-|
a|-------------------------|---------------------------------|
e|-------------------------|---------------------------------|


e|-------------------------------|---------------------------------|
b|-------------------5-----------|---------------------------------|
g|-66-66-66-66-6-6-6---6-4-2-4-6-|-66-66-66-66-6-6-6-4-2-4-2-1-----|
d|-------------------------------|-----------------------------4-2-|
a|-------------------------------|---------------------------------|
e|-------------------------------|---------------------------------|
Keyboard part 3                       (3:54)
e|-------------------------------|-----------------7---5---4-------|
b|-------------------------------|-----5---9---7---------------5---|
g|-------------------------------|---------------------------------|
d|-------------------------------|---------------------------------|
a|-------------------------------|---------------------------------|
e|-------------------------------|---------------------------------|

End on(3:58)
e|---|
b|-5-|
g|-4-|
d|---|
a|---|
e|---|




Asus4/B
e|-0-|
b|-3-|
g|-2-|
d|-x-|
a|-2-|
e|---|

The guitar doesn't play the low B, it's played by the bass but if you want 
to play the chord with the song then this is it.


-----------------------------------------------------------------------
3. Will You Come and Fetch Me


E     A              E
I was gazing in your eyes
A            E     A              E
Seeing butterflies melting on the wall 
A                 E
Strangest thing I saw
A             E
Clever little guys
F#m          B
Wonderful surprise


C#m
Will you come and fetch me, girl
A7   B7  C#
From the brink?


I'm starting to kink
And I'm too numb to think
        F#m                D#m7b5
If this nightmare can't be starved
   A/E     F#               E
Go out and hide me when I'm dropped

Onto a bail of hay, looking the other way
From noncoms in machines 
Squeezing tangerines
Emitting horrid cries
Wonderful surprise

Will you come and fetch me, girl
From the brink?

I'm starting to kink
And I'm too numb to think
If this nightmare can't be starved
                            Gm6     C7                  
Go out and find me when I'm dropped

F7sus4
Gm6   C7
F7sus4

D    E7
D    E7

Intro:
Wood-block(?)
(0:00)                        (0:07)  use throughout intro and verse
e|-----------|-----------|---|---4---------|---4---------|
b|-5---------|---5-------|-x2|-------------|-------------|
g|---------6-|---------6-|---|-----------6-|-----------6-|
d|-------6---|-------6---|---|---------6---|---------6---|
a|-----------|-----------|---|-------------|-------------|
e|-----------|-----------|---|-------------|-------------|

(0:07) continued throughout intro and verse
  E        A         E       A         E       A         E       A
Bass              
g|-----------------|-----------------|-----------------|-----------------|
d|-----------------|-----------------|-----------------|-----------------|
a|-------7---6-0-4-|-------7---6-0-4-|-------7---6-0-4-|-------7---6-0-4-|
e|-0-0-------------|-0-0-------------|-0-0-------------|-0-0-------------|
Piano
e|-----12----------|-----12----------|-----12----------|-----12----------|
b|-----12----------|-----12----------|-----12----------|-----12----------|
g|-----13(let ring)|-----13----------|-----13----------|-----13----------|
d|-----------------|-----------------|-----------------|-----------------|
a|---------0-------|---------0-------|---------0-------|---------0-------|
e|-12--------------|-12--------------|-12--------------|-12--------------|
Glockenspiel(?)
e|-----------------|-----------------|-----------------|-----------------|
b|-----------4---2-|-5---------4---2-|-5---------4---2-|-5---------4---2-|
g|-------------2---|-------------2---|-------------2---|-------------2---|
d|-----------------|-----------------|-----------------|-----------------|
a|-----------------|-----------------|-----------------|-----------------|
e|-----------------|-----------------|-----------------|-----------------|
Guitar
e|-----------------|-----------------|-----------------|-----------------|
b|-------------10/-|-5-----------10/-|-5-----------10/-|-5-----------10/-|
g|-----------------|-----------------|-----------------|-----------------|
d|-----------------|-----------------|-----------------|-----------------|
a|-----------------|-----------------|-----------------|-----------------|
e|-----------------|-----------------|-----------------|-----------------|


Verse:(0:24)

Same as intro until
(0:35)
  F#m           B
Wood-block
e|-------------|------|
b|-------------|----5-|
g|-----------6-|------|
d|-------6-----|------|
a|-------------|------|
e|-------------|------|
Bass
e|-------------|------|
b|-------------|------|
g|-------------|------|
d|-4-----------|------|
a|-------------|2-----|
e|-------------|------|
Piano
e|-------------|------|
b|-------------|------|
g|-------------|------|
d|-------------|------|
a|-------------|------|
e|-14----------|7-----|
Glockenspiel
e|-------------|------|
b|-7-----7-----|--4-5-|
g|-------------|4-----|
d|-------------|------|
a|-------------|------|
e|-------------|------|
Guitar
e|-------------|------|
b|-------7----|12----|
g|-------------|------|
d|-------------|------|
a|-------------|------|
e|-------------|------|
   wonderful surprise

Chorus:(0:37)
   C#m                             A7   B7  C#
Strings                                        Guitar
e|-4-------------------------------------------4h5p4-----------|
b|-5----------------5--------------------------------7-6-------|
g|------------------6--------------6---------------------6-----|
d|-6----------------6--------------5----7------------------6---|
a|-4----------------4-------------------6---4------------------|
e|---------------------------------5----7----------------------|
  Will you come and fetch me girl, from the brink


Guitar 1
e|-----------2--0-----------|------------2--0------------------|
b|------2-------------------|-------2--------------------------|
g|----3---------------------|---2------------------------------|
d|--------------------------|----------------------------------|
a|--------------------------|----------------------------------|
e|--------------------------|----------------------------------|
Guitar 2
e|-------------------9/-----|12---------------------------------|
b|--------------------------|-----------------------------------|
g|--------------------------|-----------------------------------|
d|--------------------------|-----------------------------------|
a|--------------------------|-----------------------------------|
e|--------------------------|-----------------------------------|
Bass
g|--------------------------|-----------------------------------|
d|-----------4/-6-----------|---4/--6---------------------------|
a|--------------------------|------------4----------------------|
e|--6-----------------------|-5-------------5-------------------|
I'm starting to kink and I'm    too numb to think   If this




Guitar 1
e|-----------------|-----------------|---------2-2-2-2-|
b|-2-2-2-2-2-2-2-2-|-2-2-2-2-2-2-2-2-|-2-2-2-2-2-2-2-2-|
g|-2-2-2-2-2-2-2-2-|-2-2-2-2-2-2-2-2-|-3-3-3-3-3-3-3-3-|
d|-4-4-4-4-4-4-4-4-|-1-1-1-1-2-2-2-2-|-4-4-4-4---------|
a|-----------------|-----------------|-----------------|
e|-----------------|-----------------|-----------------|
Guitar 2
e|----/9------/9---|----/11-----/5---|----/14-----/6---|
b|-2-------2-------|-----------------|-7-------7-------|
g|-----------------|-2-------2-------|-----------------|
d|-----------------|-----------------|-----------------|
a|-----------------|-----------------|-----------------|
e|-----------------|-----------------|-----------------|
   nightmare...

Verse(0:55)

Chorus(1:08)

Outro(1:26)
Guitar 1
   Gm6    C7                 F7sus4
e|-------------------------|-----------------------------|
b|-5------5----------------|-1--------1------------------|
g|-3------3----------------|-3--------3------------------|
d|-5------5----------------|-1--------1------------------|
a|--------3----------------|-----------------------------|
e|-3-----------------------|-1--------1------------------|
Guitar 2
e|-------------------------|-----------------------------|
b|-8------1110-11-108-10-|---6----------11/13-15-1110-|
g|-------------------------|-------/7-5------------------|
d|-5------8-7--8--7-5-7--|---3----------8-/10-12-8-7--|
a|-------------------------|-----------------------------|
e|-------------------------|-----------------------------|



Guitar 1
   Gm6    C7                 F7sus4
e|----------------------|----------------------------|
b|-5-------5------------|-1-----------------1--------|
g|-3-------3------------|-3-----------------3--------|
d|-5-------5------------|-1-----------------1--------|
a|---------3------------|----------------------------|
e|-3--------------------|-1-----------------1--------|
Guitar 2
e|----------------------|----------------------------|
b|-8-----8/13-----------|-1110-11-108-10----6------|
g|----------------------|----------------------------|
d|-5-----5/10-----------|-8-7--8--7-5-7-----3------|
a|----------------------|----------------------------|
e|----------------------|----------------------------|
Guitar 3                                          (slide guitar)
e|----------------------|--------------------------7/|
b|---5-6-5-6/8---10-8---|--------------------------7/|
g|---5-7-5-7/9---10-9---|----------------------------|
d|----------------------|----------------------------|
a|----------------------|----------------------------|
e|----------------------|----------------------------|

(1:42)
Guitar 1
   D                                        E7         E7
e|--------------|-------------------------|-0--------|-0-------|
b|-7------------|-7-----------------------|-5--------|-5-------|
g|-7------------|-7-----------------------|-7------0-|-7-------|
d|-7------------|-7-----------------------|-6--------|-6-------|
a|-5------------|-5-----------------------|-7--------|-7-------|
e|--------------|-------------------------|-0--------|-0-------|
Guitar 2
e|---7-5--------|-------7-5---------------|----------|---------|
b|--------------|---5-7-----7-5-7-5-3---5-|----------|---------|
g|-------7-4----|-7-------------------4---|-1--------|---------|
d|--------------|-------------------------|----------|---------|
a|--------------|-------------------------|----------|---------|
e|--------------|-------------------------|----------|---------|
Guitar 3
e|-10-----------|-------------------------|--------5/|-4-----7/|
b|-10-----------|-------------------------|----------|-------7/|
g|--------------|-------------------------|----------|---------|
d|--------------|-------------------------|----------|---------|
a|--------------|-------------------------|----------|---------|
e|--------------|-------------------------|----------|---------|


Guitar 1
   D                                        E7          E7
e|--------------|-------------------------|-0-----------0-|------|
b|-7------------|-7-----------------------|-5-----------5-|------|
g|-7------------|-7-----------------------|-7-----------7-|(hold)|
d|-7------------|-7-----------------------|-6-----------6-|------|
a|-5------------|-5-----------------------|-7-----------7-|------|
e|--------------|-------------------------|-0-----------0-|------|
Guitar 2
e|---7-5--------|-------7-5---------------|---------------|------|
b|--------------|---5-7-----7-5-7-5-3---5-|---------------|------|
g|-------7-4----|-7-------------------4---|-1-------------|------|
d|--------------|-------------------------|---------------|------|
a|--------------|-------------------------|----------9----|------|
e|--------------|-------------------------|----4-7-9----0-|------|
Guitar 3
e|-10-----------|-------------------------|---------------|------|
b|-10-----------|-------------------------|---------------|------|
g|--------------|-------------------------|---------------|------|
d|--------------|-------------------------|---------------|------|
a|--------------|-------------------------|---------------|------|
e|--------------|-------------------------|---------------|------|




---------------------------------------------------------------------
4. My British Tour Diary


A              D       E    A                D     E
On our trip to England I noticed something obscene
People still actually give a s**t about the Queen
       Bm                  E
Though London girls aren't snobs at all
    D                 E
And Brighton's lovely in the fall
Left alone to drive ourselves on the opposite side
Man, it was a miracle that nobody died
Hanging out with Steven, Drew, Theo, Paul, and Sorrel, too
C      F     C           F     A
Eating at Welcome Breaks daily
   C         F          C        F     A
We danced in Leeds with Brit Pop Haley

Performing with the Apples
And then crashing at the Wrights
Bitching because Steven booked us
On such early flights
Always in a foggy haze
Because we hadn't slept for days
Every single one of our London cabbies played 
The most truly repellent techno music ever made 
But they'll drop you without hesitation 
If you try changing the station

Up to our necks in crisps and litter
In the van we dubbed the Gary Glitter 

(Heart attack, on the dancefloor.....)


Intro:

<--------Main riff--------------->
e|-0-0-0-0-0------(2)----0-0-0---|-0-0-0-0-0-----(2)----0-0-0---|
b|-2-2-2-2-2------(3)----0-0-0---|-2-2-2-2-2-----(3)----0-0-0---|
g|-2-2-2-2-2------(2)----1-1-1---|-2-2-2-2-2-----(2)----1-1-1---|
d|-2-2-2-2-2-------------0-0-0---|-2-2-2-2-2------------0-0-0---|
a|-0-0-0-0-0---------------------|-0-0-0-0-0--------------------|
e|-------------------------------|------------------------------|

Main riff x 4

Verse:(0:09)
Main riff x 4

then
(0:17)
Riff 2
Guitar 1
   Bm      E       D       E
e|-2---2---4---4---2---2---4---4/7-|
b|---3---3---5---5---3---3---5-----|
g|---------------------------------|
d|---------------------------------|
a|---------------------------------|
e|---------------------------------|
Guitar 2
e|-22222---44444---22222---44444---|
b|-33333---55555---33333---55555---|
g|-44444---44444---22222---44444---|
d|---------------------------------|
a|---------------------------------|
e|---------------------------------|


Over the main riff, this background riff is added and continued thorughout
(0:22)
Guitar
e|-----------------|
b|-------5-7---5---|
g|-6---6-----6-----|
d|---7-----------6-|
a|-----------------|
e|-----------------|

Main riff + background riff x 4

Riff 2

then

(0:33)
Guitar 1 
e|-----5---5-/-9---|-----5-/-14---12---|
b|------7----------|------7------------|
g|-----------------|-------------------|
d|-----------------|-------------------|
a|-----------------|-------------------|
e|-----------------|-------------------|
Guitar 2
e|-----------------|-------------------|
b|-----6---6-/-9---|-----6---6-/--14---|
g|------5----------|------5------------|
d|-----------------|-------------------|
a|-----------------|-------------------|
e|-----------------|-------------------|


Chorus:(0:37)

Part 1

Guitar 1
   C     F         C     F
e|-88888-----------88888------------|
b|-88888-10--10--1088888-10--10--10-|
g|-99999-10--10--1099999-10--10--10-|
d|-------10--10--10------10--10--10-|
a|----------------------------------|
e|----------------------------------|
Guitar 2
e|-3-----------5---3-----------5----|
b|-----5---6-----------5---6--------|
g|----------------------------------|
d|----------------------------------|
a|----------------------------------|
e|----------------------------------|

Part 2 

Guitar 1
   A
e|-b9-----------------------------|
b|-b10----------------------------|
g|--------------------------------|
d|--------------------------------|
a|--------------------------------|
e|--------------------------------|
Guitar 2
e|--------------------------------|
b|-----7---5-----------7---5------|
g|-----7---6-----------7---6------|
d|---------------7/9-7------------|
a|--------------------------------|
e|--------------------------------|

then Part 1 again

then Main riff x 4

Verse:(0:57)
This background riff replaces the one in the first verse and begins in the 
second half of the last main riff after the chorus. It is played by one 
guitar and also by another an octave lower, probably a bass.
   A       D   E     A       D   E
e|-5---------------|-5---------------|
b|---5-----7-------|---5-----7-------|
g|-----------6-----|-----------6-----|
d|-----------------|-----------------|
a|-----------------|-----------------|
e|-----------------|-----------------|

the last riff is replaced by
(1:21)
Guitar
e|-----5---5-/-9---|-----5-----------|
b|------7----------|------75---------|
g|-----------------|---------6-4-2---|
d|-----------------|-----------------|
a|-----------------|-----------------|
e|-----------------|-----------------|


Outro:(1:37)  repeat lots
Guitar 1
e|-----9-------129-|
b|-10----10--------|
g|---9-----11------|
d|-----------11----|
a|-----------------|
e|-----------------|
Guitar 2
e|-----5-------7---|
b|-------5---------|
g|----------(6)----|
d|---7-----------6-|
a|-----------------|
e|-----------------|

-------------------------------------------------------------------------
5. Rapture Rapes the Muses

Bm   
Gm    Em  A
Bm
Gm    Em  A

    Em        
You hit me so hard
            G
Like a Wong Kar Wai beginning
      E              
I'm exploding in smiles
       G         A
My equilibrium's spinning 

B 
Rapture rapes the muses
D                              G
But you don't notice that it's kissing ya
B
Rapture rapes the muses
        D
And the void that's left confuses
G             B
It's confusing

You keep me lit like antediluvian Troy 
But one always reveres what one's bound to destroy

Gloomy Erebus is an anathema to me
All of them dancing like flames and the sad enmity

G#m                C# 
I wonder if I understand
A                      G#m   C#
Am I too young to understand?


Intro:

Bass(0:00)
g|---------------------------------|---------------------------------|
d|---------------------------------|---------5-5---------5-5-7-7-----|
a|-----9-9-7-7-5-5-----5-5-7-7-9---|-----5-5-----5-5-7-7-------------|
e|-7-7-------------7-7-------------|-3-3-------------------------5-5-|

Keyboard 1(0:07)
  Bm               Bm              Gm              Em       A
e|----------------|---------------|---------------|-----------------|
b|----------------|---------------|---------------|-----------------|
g|----------------|---------------|---------------|--7-9-11-9119--7-|
d|-9-7-9-7-97---7-|9-7-9-7-97---7-|8-7-8-7-875--7-|9----------------|
a|-----------9----|----------9----|---------------|-----------------|
e|----------------|---------------|---------------|-----------------|

Keyboard 2(0:07)
  Bm               Bm              Gm              Em       A
e|----------------|---------------|---------------|-----------------|
b|----------------|---------------|---------------|-----------------|
g|----------------|---------------|---------------|-----------------|
d|-9-7-9-7-97---7-|9-7-9-7-97---7-|8-7-8-7-875--7-|9----------------|
a|-----------9----|----------9----|---------------|--5-7-9--79-7--5-|
e|----------------|---------------|---------------|-----------------|


Verse:(0:22)
Guitar
   Em                           G
e|-7----------7-----7----------|3---------3----------3------|
b|-8----------8-----8----------|3---------3----------3------|
g|-9----------9-----9----------|4---------4----------4------|
d|-9----------9-----9----------|5---------5----------5------|
a|-7----------7-----7----------|5---------5----------5------|
e|-----------------------------|3---------3----------3------|
You hit me so hard, like a Wong Kar Wai beginning    I'm ex-

   E                           G         A
e|-7----------7--------7------|3----3----5------5-|
b|-9----------9--------9------|3----3----5------5-|
g|-9----------9--------9------|4----4----6------6-|
d|-9----------9--------9------|5----5----7------7-|
a|-7----------7--------7------|5----5----7------7-|
e|----------------------------|3----3----5------5-|
   ploding in smiles   My equi-librium's spinning


Chorus:(0:29)
Guitar
   B                 D                  G
e|-----------------|------------------|------------------|
b|-------------7---|------------------|-8------------8---|
g|-8-------8-------|-7------------7---|---7---7--------7-|
d|---9---9---9---9-|---7---7----7---7-|-----9------9-----|
a|-----9-----------|-----9------------|---------10-------|
e|-----------------|---------10-------|------------------|

x4 then

   B
e|-----------------|
b|-----------------|
g|-8-------8---8---|
d|---9---9---9---9-|
a|-----9-----------|
e|-----------------|

Verse(0:53)

Intro(1:00)

Verse(1:13)

Brige:(1:22)

Guitar
   G#m                   C#     A                       G#m C#
e|-4---------------------4------5-----------------------4---4--|
b|-4---------------------6------5-----------------------4---6--|
g|-4---------------------6------6-----------------------4---6--|
d|-6---------------------6------7-----------------------6---6--|
a|-6---------------------4------7-----------------------6---4--|
e|-4--------------------------7-5-----------------------4------|
     I wonder if I under-stand   Am I too young to understand

Chorus:(1:29)

Guitar(1:51)
   B             D             G            B             D
e|-----11----11-|----14----14-|---7---7-|--|----11----11-|-------|
b|--------12----|-------15----|-----8---|--|-------12----|-------|
g|-11----------|14----------|7-------|x2|11----------|14----|
d|--------------|-------------|---------|--|-------------|-------|
a|--------------|-------------|---------|--|-------------|-------|
e|--------------|-------------|---------|--|-------------|-------|

Intro:(2:13)
Xylophone
   Bm                            Gm                 Em    A
e|--------------|--------------|------------------|-------------|
b|--------------|--------------|------------------|-------------|
g|--------------|--------------|------------------|-------------|
d|-9-9-9-9------|-9-9-9-9------|------------------|-------7-7-7-|
a|---------9----|---------9----|-10-10-10-10------|-7-7-7-------|
e|-----------10-|-----------10-|-------------10-6-|-------------|





--------------------------------------------------------------------
6. Eros' Entropic Tundra

A                 Am
All I ever get is sad love
      Dm7             Bb           C           E7
While watching all my friends find their happy love
  C          F                  G  F     A
I don't understand why I should be   without love

All I ever get is sad love
Always falling for the ones who feel nothing for me
Sometimes I think I should just forget about love

      Dm7
I was walking with my parents
        F           E
Through St. Peter's Park
       Bb7                       Eb    Dm
When I saw a young couple with a child
          Ab          C         G
They were all holding hands and smiling
     Ebmaj7                      B7              E7
They seemed very nice, seemed to have a nice life

All I ever get is sad love
Feeling incomplete and below being loved 
I don't know why it has been so hard to find love

All I ever get is sad love
The unrequited kind is all I have procured 
And it was nothing at all like what I've heard about love

   Fmaj7      C7                  Dm7
Without love, life has no great reward
           Bb7                   Am7
Leaving us damaged or feeling so bored
          A7                     D7
Devoid of memories, nothing to record
            Fmaj7                      E7
Wishing the ones that we adore loved us more 



Intro
Guitar
   Fmaj7         E          Fmaj7 G6    A
e|-0-------------0|(hold)--|0----|0----|0------|
b|-1-------------0|--------|1----|3----|5------|
g|-2-------------1|--------|2----|4----|6------|
d|-3-------------2|--------|3----|5----|7------|
a|----------------|--------|-----|-----|-------|
e|----------------|--------|-----|-----|-------|

Verse:(0:13)
Guitar
   A                 Am             Dm7             Bb
e|-0-----------------5--------------5---------------6----------|
b|-2-----------------5--------------6---------------6----------|
g|-2-----------------5--------------5---------------7----------|
d|-2-----------------7--------------7---------------8----------|
a|-0-----------------7--------------5---------------8----------|
e|-------------------5------------------------------6----------|
   All I ever get is sad love While watching all my friends find

   C           E7     C          F                  G  F     A  (A7)*
e|-8-----------0------0----------1------------------3--1-----0--(0)---|
b|-8-----------5------1----------1------------------3--1-----2--(2)---|
g|-9-----------7------0----------2------------------4--2-----2--(0)---|
d|-10----------6------2----------3------------------5--3-----2--(2)---|
a|-10----------7------3----------3------------------5--3-----0--(0)---|
e|-8-----------0-----------------1------------------3--1-----------|
   their happy love I don't understand why I should be   without love

*add an A7 before the chorus and/or bridge

Verse(0:29)

Chorus(0:44)
Guitar 1
      Dm7                             Fmaj7       E7           Bb7
e|----5-------------------------------0-----------0------------6---|
b|----6-------------------------------1-----------3------------6---|
g|----5-------------------------------2-----------1------------7---|
d|----7-------------------------------3-----------2------------6---|
a|----5-------------------------------------------2------------8---|
e|------------------------------------------------0------------6---|
I was walking with my parents through St. Peter's Park, when I saw a young

              Eb   Dm          Ab          C         G
e|------------6----5-----------4-----------3---------3----------|
b|------------8----6-----------4-----------5---------3----------|
g|------------8----7-----------5-----------5---------4----------|
d|------------8----7-----------6-----------5---------5----------|
a|------------6----5-----------6-----------3---------5----------|
e|-----------------------------4---------------------3----------|
couple with a child  they were all holding hands and smiling. They

   Ebmaj7                      B7               E7
e|-6---------------------------2----------------0-----|
b|-8---------------------------0----------------3-----|
g|-7---------------------------2----------------1-----|
d|-8---------------------------1----------------2-----|
a|-6---------------------------2----------------2-----|
e|----------------------------------------------0-----|
   seemed very nice, seemed to have a nice life


Guitar 2
   Dm    F   E     Bb7   Eb  Dm    Ab   C  G        Ebmaj7          B7    E7
e|-------------------6-----11---10----4---8--3---3--------------------2---0|
b|-6-------5---5---3---------------------------3-------3---3----------0---0|
g|---5---5---4---3-----7---------------------------0-3---3---3-3-3--2---2-1|
d|-------------------------------------------------------------------------|
a|-------------------------------------------------------------------------|
e|-------------------------------------------------------------------------|


Verse(1:04)

Bridge:(1:36)


Guitar (electric)
   Fmaj7           C7              Dm               Bb9
e|-------0-------------------3---------------5----------------------|
b|-----1-----1-----------5---------------6----------------1---------|
g|---2---------2-3-----3---------------7---------(4)----1-----1---0-|
d|-3-----------------5---------------7--------(6)-----3-------------|
a|-----------------3---------------5----------------1---------------|
e|------------------------------------------------------------------|
 Strings
e|-0---------------3--------------------------------1---------------|
b|-1---------------5---------------6----------------3---------------|
g|-2---------------3---------------7----------------1---------------|
d|-3-------------------------------7--------------------------------|
a|-----------------3---------------5----------------1---------------|
e|------------------------------------------------------------------|

Guitar (electric)
   Am7             A7              D7
e|-----------0---------------3-----------2---------|
b|-------1---------------2-------2-----1-----1---1-|
g|-----0---------0-----0-------------2---------2---|
d|---2---------------2-------------0---------------|
a|-0---------------0-------------------------------|
e|-------------------------------------------------|
 Strings
e|-0---------------3---------------2---------------|
b|-1---------------2---------------1---------------|
g|-0---------------2---------------2---------------|
d|-----------------2---------------0---------------|
a|-0-----------------------------------------------|
e|-------------------------------------------------|

Guitar (electric)
   Fmaj7                           E7
e|---0---------------0-----------------------4-----0---------------|
b|-----1-----1---1-----1-----1---1---3---3-------3-0---------------|
g|-2-----2-----2---2-----2-----2---4---4-----------1---------------|
d|---------3---------------3---------------------------------------|
a|-----------------------------------------------------------------|
e|-----------------------------------------------------------------|
 Strings
e|-0-------3-------1-------5-------4---------------0---------------|
b|-1-------------------------------3---------------0---------------|
g|-2-------------------------------1---------------1---------------|
d|-3-------------------------------2---------------2---------------|
a|-----------------------------------------------------------------|
e|-----------------------------------------------------------------|


Solo:(1:58)
First line of verse as normal then
Keyboard:(2:02)
  Dm7       Bb      C       E7      C       F       G       F       A     
e|--------------------8----------------------------------------------------|
b|5-6-5---8-6---5-6-8-8-8-6-8-------8-6-5-------------------------6-8--65--|
g|5-7-5---9-7---5-7-9---9-7-9-------9-7-5-5---2---5-4-------2-----7-9--76-6|
d|----------------------------------------7---3---7-5-------3-------------7|
a|-------------------------------------------------------------------------|
e|-------------------------------------------------------------------------|


Chorus(2:14)

Verse(2:34)

Outro:(2:51)
Same as intro.


----------------------------------------------------------------------
7. City Bird

This song could be played with the capo off, making some of the chords a lot easier, but 
making some of them a lot harder.
So I'll stick with a capo on the first fret. All chords are relative to the capo.

Some of the fingering can hurt your hand, so you might be able to find better fingerings 
the trickier chords, but I've tried to make them as painless as possible.

Also, try to let most of the notes ring, especially the highest notes of each chord.

Where the chord has one less note than the others, it is usually a spot where you slide 
the notes of the next chord.

Capo on first:

Intro:           Verse:
e|-3-(flute)----||-1-----1-0-------|---------------|-1-----1-0-------|
b|-----------1--||-----------------|-3-----3-------|-----------------|
g|-----------0--||---0-------0---0-|---3-------3---|---0-------0---0-|
d|-----------2--||-----2-------2---|-----3-------3-|-----2-------2---|
a|-----------3--||-3-------3-------|-5-------5-----|-3-------3-------|
e|--------------||-----------------|---------------|-----------------|
             C     Cadd4   C         Bb/D            Cadd4   C

e|-0-----0---------|---------3--------|-----------------|-----------------|
b|---0-------0-----|-6----------------|-4-----4---------|-4-----4---------|
g|-----0-------0-0-|---3---3----3-----|---5-------5-----|---4-------4---0-|
d|-2-------2-------|-----5--------5-5-|-----7-------7---|-----6-------6---|
a|-----------------|-6-------6--------|-8-------8-------|-7-------7-------|
e|-----------------|------------------|-----------------|-----------------|
   Em                Ebadd2  Eb         F7                Emaj7

e|---------0-----0-|-------------||
b|-3-----3---------|--1---3---1--||
g|---0-------0-----|--0---0---0--||
d|-----2-------2---|--2---3---2--||
a|-3-------3-------|--3---3---3--||
e|-----------------|-------------||
   Cadd2   C          C(strum these with your fingernail or a pick)

Chorus:
e|----------------|-4-----4--------|-----------------|-------------------|
b|-3-----3--------|---3-------3----|-4-----4---------|-1-------3---------|
g|---2-------2----|-----3-------3--|---3-------3---0-|---2-------4---(5)-|
d|-----4-------4--|-3-------3------|-----5-------5---|-0---4-------5-----|
a|-5-------5------|----------------|-6-------6-------|---------5---------|
e|----------------|----------------|-----------------|-------------------|
   D                Bb7              Eb                D7       G

e|-----------------|-----------------|-----------------||
b|-5-----5---------|-4-----4-------4-|-------4---------||
g|---5-------5-----|---3-------3-----|---3-------3---0-||
d|-----5-------5-5-|-----5-------5---|-----5-------5---||
a|-7-------7-------|-6-------6-------|-6-------6-------||
e|-----------------|-----------------|-----------------||
   C/E               Eb

Solo: (flute over verse chords, and with a capo on first fret)
e|-----|-3-1---|----------|----------|-----|-3-1-----|---------|-------|-|
b|-1---|-------|-1--3-5---|----------|-----|------1--|-----3-5-|-------|-|
g|-----|-------|----------|-0--2-4---|-3---|---------|-1-------|----0--|-|
d|-----|-------|----------|----------|-----|---------|---------|-2-----|-|
a|-----|-------|----------|----------|-----|---------|---------|-------|-|
e|-----|-------|----------|----------|-----|---------|---------|-------|-|


Structure:

Intro

Verse
City bird haven't you heard
hasn't anybody told you?
These city blocks can't hold you
Your place is in the sky how can I show you?

Verse
City bird haven't you learned
of the boundlessness of your freedom
The sky is your blue kingdom
You neglect your wings like you don't need them

Chorus
City bird maybe these hands that feed you need you
Maybe you understand that city bird

Solo (over verse chords)

Chorus
City bird maybe these hands that feed you need you
Maybe you understand that city bird

Verse
City bird haven't you heard
hasn't anybody told you?
These city blocks can't hold you
Your place is in the sky how can I show you?

Outro: last two bars of verse again.



-----------------------------------------------------------------------
8. Erroneus Escape Into Erik Eckles

Bbmaj7   Am7
Bbmaj7   Am7  C

D       G7
G7      D

    D                G7
The octopus in your purse
   G7                   D
Is cursing like an evil sailor
But remember the knife is worse
For the editors of movie trailers

           Bbmaj7
And if you want me to
Am7  F
I'll help
     C       Gm7     F
It's all the same to me
                    Bbmaj7     Am7  C
Just tell me if you want me to

If you keep killing God in your eyes
People will think you're really callous
But no matter how hard you really try
You'll never be as weird as Uncle Alice

And if you want me to
I'll help
It's all the same to me
                    Bbmaj7     Am7
Just tell me if you want me to

Gm7     Gm6    Bbmaj7  Dm
I'm not upset, just confused
         A
And it's so tough
Gm7       Gm6  Bbmaj7  Dm
I can't relate to this world
        A
I'm not bored enough
Bbmaj7         Am7
Watch out, The music will 
Bbmaj7       Am7     C
complete the change in you

To sing this song in braille
You have to be haunted by glass freckles
And if your color treatment fails
Well, you can always talk to Eric Eckles

And if you want me to
I'll help
It's all the same to me
                    Bbmaj7     Am7
Just tell me if you want me to
       Bbmaj7     Am7  C
If you want me to 

D  G7  D
D  G7  D


Intro:(0:00)
Guitar 1
   Bbmaj7   Am7      Bbmaj7   Am7 C
e|-1-1------0------|-1-1------0---0-|
b|-3-3------1------|-3-3------1---1-|
g|-2-2------0------|-2-2------0---0-|
d|-3-3------2------|-3-3------2---2-|
a|-1-1------0------|-1-1------0---3-|
e|-----------------|----------------|
Guitar 2
e|-5-5-6/5--3------|-5-5-6/5--8-----|
b|-6-6-8/6--5---5--|-6-6-8/6--10--8-|
g|--------------5--|--------------9-|
d|-----------------|----------------|
a|-----------------|----------------|
e|-----------------|----------------|


Main riff
Guitar 1
       D              G7                G7              D
e|---|---2---0---2--2-----1-1-----1-1-|-----1-1-----1-1---2--0--2--2-|
b|---|---3---1---3--3-----0-0-----0-0-|-----0-0-----0-0---3--1--3--3-|
g|---|---2---2---2--2-----------------|-------------------2--2--2--2-|
d|---|-0------------------------------|-----------------0------------|
a|---|--------------------------------|------------------------------|
e|---|----------------3-3-----3-3-----|-3-3-----3-3------------------|
Guitar 2(slide)
e|---|---7/-7----------5-------------|---5---------------7---------|
b|---|----------/7--------6-----------|-----6----------/7---/7-------|
g|-5/|-7-------------/4----/4---------|/4-----4--2------------------|
d|---|--------------------------------|------------------------------|
a|---|--------------------------------|------------------------------|
e|---|--------------------------------|------------------------------|

Main riff again

Verse:(0:23)
Main riff without slide with this riff instead x 2
Guitar 2(from intro)
   D               G7              G7              D 
e|-----------------------------------------------------------------|
b|---7---5-------------6-6-----6-6-----6-6-----6-6---7---5---------|
g|---7---5---7---5-----4-4-----4-4-----4-4-----4-4---7---5---7---5-|
d|-----------7---4-------------------------------------------7---4-|
a|-----------------------------------------------------------------|
e|-----------------------------------------------------------------|

Chorus:(0:39)
Guitar 1
   Bbmaj7 Am7 F      C  Gm7*F       Bbmaj7 Am7 C
e|-1-1----0---1----|-0--1---1-----|-1-1------0---0---|
b|-3-3----1---1----|-1--3---1-----|-3-3------1---1---|
g|-2-2----0---2----|-0--3---2-----|-2-2------0---0---|
d|-3-3----2---3----|-2--3---3-----|-3-3------2---2---|
a|-1-1----0---3----|-3--1---3-----|-1-1------0---3---|
e|------------1----|---(3)--1-----|------------------|
Guitar 2
e|-----------------|--------------|-5-5-6/5--8-------|
b|-6-6----5---1----|-5--3---1-----|-6-6-8/6--10--8---|
g|-7-7----5---2----|-5--3---2-----|--------------9---|
d|-----------------|--------------|------------------|
a|-----------------|--------------|------------------|
e|-----------------|--------------|------------------|

Gm7*
The guitar plays Bb but the bass adds the G which makes it sound like a 
Gm7. When playing along, the Gm7 sounds more like the song but is tricky to
play so you have to leave out the 1 on the A string and play the low G with
 your thumb.


Main riff with slide

Verse:(0:58)
Same as before but with this riff added
(1:07)
Guitar(slide)
e|-/13--/10---5--|
b|---------------|
g|---------------|
d|---------------|
a|---------------|
e|---------------|

Chorus(1:13)
Same but stay on Am7 rather than changing to C for guitar 1

Bridge:(1:25)
Guitar 1
   Gm7       Gm6  Bbmaj7  Dm              A
e|-3--------------1-------5---------------5-------|
b|-3---------3----3-------6---------------5-------|
g|-3---------3----2-------7---------------6-------|
d|-3---------2----3-------7---------------7-------|
a|-5--------------1-------5---------------7-------|
e|-3---------3----------------------------5-------|
   I'm not upset, just confused. And it's so tough

   Gm7       Gm6  Bbmaj7  Dm              A
e|-3--------------1-------5--------------5--------|
b|-3---------3----3-------6--------------5--------|
g|-3---------3----2-------7--------------6--------|
d|-3---------2----3-------7--------------7--------|
a|-5--------------1-------5--------------7--------|
e|-3---------3---------------------------5--------|
   I can't relate to this world. I'm not bored enough

Guitar 1
   Bbmaj7   Am7       Bbmaj7   Am7 C
e|-1--------0-------|-1--------0---0---|
b|-3--------1-------|-3--------1---1---|
g|-2--------0-------|-2--------0---0---|
d|-3--------2-------|-3--------2---2---|
a|-1--------0-------|-1--------0---3---|
e|------------------|------------------|
Guitar 2
e|-5----6/5-3-------|-5----6/5-8-------|
b|-6----8/6-5--5----|-6----8/6-10-8----|
g|-------------5----|-------------9----|
d|------------------|------------------|
a|------------------|------------------|
e|------------------|------------------|

Main riff with slide x 2

Verse(2:03)
Same as second verse, including slide riff.

Chorus(2:18)
Same as first chorus but extended. Treat the last two lines like the intro for both guitars.

Outro(2:34)
Guitar 1
       D       G7   D       D       G7   D
e|---|-2---2---1-1--2-----|-2---2---1-1--2-----|
b|---|-3---3---0-0--3-----|-3---3---0-0--3-----|
g|---|-2---2---0-0--2-----|-2---2---0-0--2-----|
d|---|-0---0---0-0--0-----|-0---0---0-0--0-----|
a|---|---------2-2--------|---------2-2--------|
e|---|---------3-3--------|---------3-3--------|
Guitar 2slide)
e|-3/|-5------/10--5---3/|-5------/10--5-----|
b|-5/|-7------/10--7---5/|-7------/10--7-----|
g|-5/|-7------/10--7---5/|-7------/10--7-----|
d|---|--------------------|--------------------|
a|---|--------------------|--------------------|
e|---|--------------------|--------------------|



--------------------------------------------------------------------------
9. Chrissy Kiss the Corpse

Bb        F
Bb        Db
C     F   G
C     F   G


     C        F     G        C         F  G
On a bus stop bench sat an ancient lady 
It was clear she was dead, yeah, we all could agree
And that death had arrived quite unexpectedly 
Because the poor wretch died with a book on her knee

Bb                      F
Chrissy kiss the corpse 
Bb                      Db
Chrissy kiss the corpse

David drew a mustache under her nose
Nick put a burning match between her toes
I put a cockroach in her pantyhose
Chrissy put on some lipstick and struck a dramatic pose

Chrissy kiss the corpse
Chrissy kiss the corpse

G                 
Chrissy's such a pretty lass
F
As benign as broken glass
G
No one in her family knows
    Ab         G
The vile hobby that she chose


Some cops came by so we hid behind a tree
I peeked out and they noticed me
And said fondling the dead is a felony
But you got nothing to fear because we only came to see

Chrissy kiss the corpse
To see Chrissy kiss the corpse

Chrissy's such a pretty thing
Gentle as a scorpion sting
No one ever would suspect
That her mind's completely wrecked 


Riff 1
Guitar 1(acoustic)
   Bb                F            Bb                Db
e|-1-1-1-1-1---1-----1-1---1----|-1-1-1-1-1---1-----4-4---4----|
b|-3-3-3-3-3---3-----1-1---1----|-3-3-3-3-3---3-----6-6---6----|
g|-3-3-3-3-3---3-----2-2---2----|-3-3-3-3-3---3-----6-6---6----|
d|-3-3-3-3-3---3-----3-3---3----|-3-3-3-3-3---3-----6-6---6----|
a|-1-1-1-1-1---1-----3-3---3----|-1-1-1-1-1---1-----4-4---4----|
e|-------------------1-1---1----|------------------------------|
Guitar 2(electric)
e|---1---------1/----8-8---8----|---1---------1/----4-4---4----|
b|-------3-----------1010--10---|-------3-----------6-6---6----|
g|-3---3---3---------1010--10---|-3---3---3---------6-6---6----|
d|------------------------------|------------------------------|
a|------------------------------|------------------------------|
e|------------------------------|------------------------------|


Riff 2
Guitar 1
e|-0-------1-1-0-0-|-0-------1-1-0-0-|-0-------1-1-0-0-|-0-------1-1-0-0-|
b|-1---1---1-1-0-0-|-1---1---1-1-0-0-|-1---1---1-1-0-0-|-1---1---1-1-0-0-|
g|-0---2---2-2-0-0-|-0---2---2-2-0-0-|-0---2---2-2-0-0-|-0---2---2-2-0-0-|
d|-2---3-----------|-2---3-----------|-2---3-----------|-2---3-----------|
a|-3---------------|-3---------------|-3---------------|-3---------------|
e|-----------------|-----------------|-----------------|-----------------|
Guitar 2
e|---------5-5-3-3-|---------5-5-3-3-|---------5-5-3-3-|---------5-5-3-3-|-|
b|-5-------6-6-5-5-|-5-------6-6-5-5-|-5-------6-6-5-5-|-5-------6-6-5-5-|5|
g|-5---5-----------|-5---5-----------|-5---5-----------|-5---5-----------|5|
d|-----5-----------|-----5-----------|-----5-----------|-----5-----------|-|
a|-----------------|-----------------|-----------------|-----------------|-|
e|-----------------|-----------------|-----------------|-----------------|-|


Intro:(0:00)
Riff 1
Riff 2

Verse(0:12)
Riff 2(without guitar 2) x 2

Chorus(0:23)
Riff 1

Post-chorus(0:29)
Riff 2

Verse(0:34)

Chorus(0:46)

Post-chorus(0:52)
Half of riff 2

Bridge:(0:54)

Guitar 1
       G                F                G                Ab       G
e|---|-3---------------|1---------------|3---------------|4--------3-------|
b|---|-3---------------|1---------------|3---------------|4--------3-------|
g|---|-4---------------|2---------------|4---------------|5--------4-------|
d|---|-5---------------|3---------------|5---------------|6--------5-------|
a|---|-5---------------|3---------------|5---------------|6--------5-------|
e|---|-3---------------|1---------------|3---------------|4--------3-------|
Guitar 2
e|---|---3--3--3--3----|--1--1--1---1---|--3--3--3---3---|---6-4------5-3--|
b|---|---3--3--3--3----|--1--1--1---1---|--3--3--3---3---|-4--------3------|
g|---|-4-------------4|2-------------2/|4--------------4/5-5----3/4-4-----|
d|---|-----------------|----------------|----------------|-----------------|
a|---|-----------------|----------------|----------------|-----------------|
e|---|-----------------|----------------|----------------|-----------------|
Guitar 3(slide)
e|---|-----------87---|----------------|----------87---|------107-------|
b|-5/|-8-------------8|6-------------5/|8---------108-8/|9----------------|
g|---|-----------------|----------------|----------------|-----------------|
d|---|-----------------|----------------|----------------|-----------------|
a|---|-----------------|----------------|----------------|-----------------|
e|---|-----------------|----------------|----------------|-----------------|

then Riff 2

then (1:11)
Guitar 1 same as riff 2
Guitar 3(slide)
e|/8------3------/8------3-------|
b|/8------1------/8------1-------|
g|---------------------------------|
d|---------------------------------|
a|---------------------------------|
e|---------------------------------|

Guitar 2
e|-------------------------------8-10-12-10-12-13-12-13-15-20--|back
b|-5-6-8-6-8-10-8-10-12-10-12-13-------------------------------|to 
g|-------------------------------------------------------------|riff 1
d|-------------------------------------------------------------|
a|-------------------------------------------------------------|
e|-------------------------------------------------------------|
Guitar 3
e|------------------------------------------------10-------12--|-13--|
b|-5-----6------8-------10-------12------13--------------------|-----|
g|-------------------------------------------------------------|-----|
d|-------------------------------------------------------------|-----|
a|-------------------------------------------------------------|-----|
e|-------------------------------------------------------------|-----|

then riff 2

Verse(1:35)

Chorus(1:46)

(1:52) half of riff 2

Bridge(1:55)

End on
Guitar 1
   C
e|-0-|
b|-1-|
g|-0-|
d|-2-|
a|-3-|
e|---|
Guitar 2
e|-8-|
b|-8-|
g|-9-|
d|---|
a|---|
e|---|


---------------------------------------------------------------------
10. Your Magic is Working

C#m7      F#7
B         D#dim7
G#7   
C#m7
B

D#m                 Dmaj7
Baby, your magic is working
D#m       E7        D    C#dim7           Bmaj7
I lose control of myself whenever you are near me
Gmaj7  A           B
I      feel myself changing

       C#m     D#7       
From a guy too cynical for love
Fm     G#         C#
Into a blushing romantic
     
ĂŽnscrie-te la newsletter


Join the ranks ! LIKE us on Facebook