Shes A Rejector Bass Tab - Of Montreal




Kinda tricky to get the hang of, but once you do it's a great song to play.
IF there are any errors, please email me at Mrhawley@comcast.net
THanks!!!

Artist: Of Montreal
Song: Shes a Rejector

Intro

------------------------------------------------|
D-----------------------------------------------|
A---------------4-4---------------4-4-----------|
E-6-6---1-1-6-6-------4-4---4-4-2-2----4-4--2-2-|

 Main Riff

G---------------------------------------------------------------------|
D-------7-10-7----------7-10-7-0-0--10-10---10-------------8-12-8-----|
A--------------0-0----------------------------------------------------|
E-10-10------------10-10-----------------8-8------8-8--6-6--------8-8-|


Hope you enjoy the tab!
ĂŽnscrie-te la newsletter


Join the ranks ! LIKE us on Facebook