Americana Bass Tab - Offspring




The Offspring
American 
by Punky Jerk

intro
g:---------------------|
d:---------------------|
a:---------------------|
e:3---5---5-4-3--2/33-|

verse part1
g:----------2-0-|
d:2----0-2------|
a:---0----------|
e:--------------|

verse part2
g:-------------------------------------------|
d:222222------------------000-2222222------|
a:--------------0000-3333--------------2222-|
e:--------3333-------------------------------|

chorus

g:-------------------------------------|
d:-------------------------------------|
a:---55-77--77-5-3----5-7--77/5/7777-|
e:33----------------33-----------------|

last chorus
g:------------------------------------|
d:------------------------------------|
a:---66--88-88-6-4---6-8--6/888/6/8-|
e:44---------------44-----------------|
ĂŽnscrie-te la newsletter


Join the ranks ! LIKE us on Facebook