Bad Habit Solo Bass Tab - Offspring




OK im not a bassist, im a guiatrist but i just want to show this simple
begining 2 a kd song that u shud learn and heres ur 1st step!

G-------------------------------------
D-----4~~~~~~~------------------------
A-------------------------------------
E-0-2~~~~~~~~~---0-2-2----------------

G-------------------------------------
D-----4~~~~~~~------------------------
A-------------------------------------   x until main part of song!
E-0-2~~~~~~~~~---0-2-2----------------


its easy! just make sure to hold the 2 and 4 to make it sound better!

*P|eRs*
Înscrie-te la newsletter


Join the ranks ! LIKE us on Facebook