Cogs (album) Tab - Offspring




Tabbed by: Ryan Armstrong
Email:

Tuning: Standard
  
This is one of their early song from when they were calling themselfs
manic subsidal but you'll know that if you've got the greatest hits dvd,
then they took the verse and used it in gotta get away so you should know
the verse to that but if you don't i've added it hope you enjoy it.
  
  Main Riff
e|---------------------------------------------|
B|---------------------------------------------|
G|-9-9-9-9-6-6-6-6-----------------------------|
D|-9-9-9-9-6-6-6-6-7-7/10-10/9-9/7-7/10-10/9-9-|
A|-7-7-7-7-4-4-4-4-7-7/10-10/9-9/7-7/10-10/9-9-|
E|-----------------5-5/-8--8/7-7/5-5/-8--8/7-7-|
  Continued
e|---------------------------------------------|
B|---------------------------------------------|
G|-9-9-9-9-6-6-6-6-----------------------------|
D|-9-9-9-9-6-6-6-6-7-7/10-10/9-9/7-7/10-10/9-9-|
A|-7-7-7-7-4-4-4-4-7-7/10-10/9-9/7-7/10-10/9-9-|
E|-----------------5-5/-8--8/7-7/5-5/-8--8/7-7-|
Let that note hang
  
I,m not sure whether the first part is right so here's an alternative
version just play the one you think is right. 

  Main Riff
e|---------------------------------------------|
B|---------------------------------------------|
G|-9-9-9-9-6-6-6-6-----------------------------|
D|-9-9-9-9-6-6-6-6-7-7/10-10/9-9/7-7/9-9-9-9---|
A|-7-7-7-7-4-4-4-4-7-7/10-10/9-9/7-7/9-9-9-9---|
E|-----------------5-5/-8--8/7-7/5-5/7-7-7-7---|
  Continued
e|---------------------------------------------|
B|---------------------------------------------|
G|-9-9-9-9-6-6-6-6-----------------------------|
D|-9-9-9-9-6-6-6-6-7-7/10-10/9-9/7-7/10-10/9-9-|
A|-7-7-7-7-4-4-4-4-7-7/10-10/9-9/7-7/10-10/9-9-|
E|-----------------5-5/-8--8/7-7/5-5/-8--8/7-7-|
Let that note hang
  Verse 
e|--------------------------------------------------------|
B|--------------------------------------------------------|
G|----7-7---7-7---9-9---9-9---12-12---14--9-9-10-9-10-9-9-|
D|----7-7---7-7---9-9---9-9---12-12---14--9-9-10-9-10-9-9-|
A|----5-5---5-5---7-7---7-7---10-10---12--7-7--8-7--8-7-7-|
E|-0-0---0-0---0-0---0-0---0-0-----0-0--------------------|

Thats it its a cool riff, obviously i don't kow the whole song but maybe its
gave you an insight and just play it the way you think its right enjoy. 

| /  slide up
|   slide down
| h  hammer-on
| p  pull-off
| ~  vibrato
| +  harmonic
| x  Mute note
=============================================================================
ĂŽnscrie-te la newsletter


Join the ranks ! LIKE us on Facebook