Come Out And Play (ver2) Tab - Offspring




The Offspring, Come Out And Play.
 Tabbed by Scott, ZeldaSJT@aol.cm.
  
Come Out And Play by The Offspring 
from the album Smash (1994 - Epitaph)
Tabbed by Scott (email-ZeldaSJT@aol.com)

I believe that this tab is correct. It is the best one I have seen for 
this song. Most others are wrong or very confusing to a beginer. Thats 
the main reason why I did this tab. 
                                                         
                                                           played over part 2 4X                 
INTRO               part 1 4X              part 2 4X             guitar 2
E|-----------|---------------------|-----------------------|---7-7-7/10\5--5---|
B|-----------|---------------------|-----------------------|---7-7-7/10\5--5---|
G|-----------|---------7-7---------|----------7--7---------|-------------------|
D|-----------|---9-9-9-7-7-4-7-7---|---9-9-9--7--7-4-7-7---|-------------------|
A|---7-7-7---|---9-9-9-5-5-4-7-7---|---9-9-9--5--5-4-7-7---|-------------------|
E|---7-7-7---|---7-7-7-----2-5-5---|---7-7-7-------2-5-5---|-------------------|
 |  NATURAL  |
 \_HARMONICS_/   

      4X (4th time only play brackets)        4X (4th time only play brackets)
VERSE           guitar 1                                 guitar 2
E|-----------------------------------------| |--------------------------------|
B|-----------------------------------------| |--------------------------------|
G|---------------------------7-7-7---------| |--------------------------------|
D|---(9-9-9-4-4-4-7-7-9)-9-9-7-7-7-4-7-7---| |--(-----1-2/4\2-1----)----------|
A|---(9-9-9-4-4-4-7-7-9)-9-9-5-5-5-4-7-7---| |--(2-3------------3-2)--2-3-2---|
E|---(7-7-7-2-2-2-5-5-7)-7-7-------2-5-5---| |--------------------------------|
     \___________palm-mute_____________/    
                                                               
                   4X
E|---------------------------------------|
B|---------------------------------------|
G|-------------------------7-7-7---------|
D|---9-9-9-4-4-4-7-7-9-9-9-7-7-7-4-7-7---|
A|---9-9-9-4-4-4-7-7-9-9-9-5-5-5-4-7-7---|
E|---7-7-7-2-2-2-5-5-7-7-7-------2-5-5---|
     \___________palm-mute___________/
                        
PRE-CHORUS                                            *=play8X
E|------------------------------------------------------------|
B|--------------------------------------------------------*---|
G|---9-9-9-9-12-12-12-12-11-11-11------------------------11---|
D|---9-9-9-9-12-12-12-12-11-11-11-9-9-12-9-9-9-4-4-4-7-7-11---|
A|---7-7-7-7-10-10-10-10--9--9--9-9-9-12-9-9-9-4-4-4-7-7--9---|
E|--------------------------------7-7-10-7-7-7-2-2-2-5-5------|
                                         \__palm-mute__/ 
    (playthrough with
   brackets 3rd X only)    
CHORUS       3X               
ĂŽnscrie-te la newsletter


Join the ranks ! LIKE us on Facebook