Pass Me By Intro Tab - Offspring




Artist: The Offspring
Song: Pass Me By Riff
Tuning: Standard (EADGBe)
Tabber: Dan Fallows (Sick of you) 

This is the end riff at the end of this video
for the song ''Pass Me By'' which should be on their new album hopefully.
It's been too long, almost 3 and a half years.


http://www.youtube.com/watch?v=0utghAJdkfI

Intro
e|----------------------------------------------|
B|----------------------------------------------|
G|----------------------------------------------|
D|----------------------------------------------|
A|-----/7-6-7-----/7-6-7-----/7-6-7-----/6-4-6--|
E|--99---------99---------55---------77---------|

e|------------------------------------------------|
B|------------------------------------------------|
G|------------------------------------------------|
D|------------------------------------------------|
A|-----/7-6-7-----/7-6-7-----/7-6-7-----7-6-7-9--|
E|--99---------99---------55---------77-----------|
                                         /|
Not too sure on this end part-------------|

But other than that it sounds pretty good!
I also tried playing it from the 5th fret down
but it didnt sound that good so i'm pretty sure it's played
in this position.
ĂŽnscrie-te la newsletter


Join the ranks ! LIKE us on Facebook