The Kids Arent Alright Solo Tab - Offspring




!------------------------------------------------------------
          The Kids Arent Alright - The Offspring           
------------------------------------------------------------

By: xtreme_ryguy

b= bend (bend to note indicated)
r= release (bring back down to note indicated)
/= slide up
_= hold note

If you get messed up while reading the bends look at the
page How to Write a Tab and look at 2.3- Bends. This is
only the solo for the song it seems it was the only part
no one could tab right. Look at one of the other versions
for the rest of the song.

Solo:
e|---------------------------------------------------
B|----------------------------9___-11___-14___-16___-
G|---------------------------11b13-13b15-16b18-18b20-
D|---------------------------------------------------
A|-1-1/3-3-3/4-4-4/6-6-6/8-8-------------------------
E|---------------------------------------------------

e-13___16p13---------13____13_13-13____13_13-13____13_13-
B-16b18_____18r16-14-16b18_18_18-16b18_18_18-16b18_18_18-
G--------------------------------------------------------
D--------------------------------------------------------
A--------------------------------------------------------
E--------------------------------------------------------

e---------------------------------------9-9------------
B-16b18r16-14----14h16-14-11----------9-----9----------
G-------------15-------------11b13-11---------10-11b13-
D------------------------------------------------------
A------------------------------------------------------
E------------------------------------------------------

e----------------------------|
B-14-16b18_18r16-14-16b18r16-|
G----------------------------|
D----------------------------|
A----------------------------|
E----------------------------|

Questions or comments? Email me at extremebiker1@hotmail.com
============================================================
ĂŽnscrie-te la newsletter


Join the ranks ! LIKE us on Facebook