Damnation-onslaught Tab - Onslaught






Band:  Onslaught
Album: Power From Hell
Song:  Damnation-Onslaught

Copyright (c)  (Under One Flag) (1986)
Version 1.0 - (02/05/06)


Transcribed By: Steve
Email:          stephen.elvidge1@ntlworld.com


.  - palm mute           /  - slide up to
  - slide down to       ~  - vibrato
h  - hammer on           b  - Bend
p  - pull off            Suffixes for bend
t  - tap                 f  - full bend    h - half bend
ph - pinched harmonic    q  - quarter bend t - tap bend
                         p  - pre bend
*  - see comment         ^  - Hold bend    r release bend
x  - Stuccatto           ~  - vibrato bend
,  - slight palm mute    () - ghost note, sustained note
"  - tremolo note         - harmonic

Tuning E A D G B E

 Intro

 Bells, guitar and vocal effects. 
 Thunder clap.

 Main Riff

  [----PM---]          [---PM---]   [-PM-]
|------------------------------------------------------|
|------------------------------------------------------|
|------------------------------------------------------|
|------------------------------------------------------|
|------------5--5/875----------3/5-----2-3p2-3p2-3p2-|
|-0000000000-3--3/653-00000000-1/3-000---------------| Rpt 9 X 

 Chorus

|-------------------------------------------------------------|
|-------------------------------------------------------------|
|-------------------------------------------------------------|
|-------------------------------------------------------------|
|-7---(7)---5--(5)--3--(3)--2--(2)--3/5-2--(2)--2-3p2-3p2-3p2-|
|-5---(5)---3--(3)--1--(1)--0--(0)--1/3-0--(0)----------------| Rpt 2 X

 Rpt Verse
 Rpt Chorus

  [--PM--]  [PM]  PM     [--PM--] [PM]   PM
|------------------------------------------------|
|------------------------------------------------|
|------------------------------------------------|
|------------------------------------------------|
|-2-2-2-2-3-2-2-3---5-5--2-2-2-2-3-2-2-3---85---|
|-0-0-0-0-1-0-0-1-0-3-3--0-0-0-0-1-0-0-1-0-63---| Rpt 3 X

  Guitar 1
  [--PM--]  [PM]  PM     [--PM--] [PM]   
|------------------------------------------------------|
|------------------------------------------------------|
|--------------------------------------7-5-------------|
|------------------------------------------7-6-5-------|
|-2-2-2-2-3-2-2-3---5-5--2-2-2-2-3-2-2-----------7-6-5-|
|-0-0-0-0-1-0-0-1-0-3-3--0-0-0-0-1-0-0-----------------|
  Guitar 2
  [--PM--]  [PM]  PM     [--PM--] [PM]   
|------------------------------------------------------|
|------------------------------------------------------|
|------------------------------------------------------|
|--------------------------------------7-5-------------|
|-2-2-2-2-3-2-2-3---5-5--2-2-2-2-3-2-2-----7-6-5-------|
|-0-0-0-0-1-0-0-1-0-3-3--0-0-0-0-1-0-0-----------7-6-5-|


 [-PM-] [-PM-] [-PM-] [-PM-]  [-PM-] [-PM-] [-PM-] [-PM-]
|------------------------------------------------------------|
|------------------------------------------------------------|
|------------------------------------------------------------|
|------------------------------------------------------------|
|------5------5------5------7-------5------5------5------87-|
|-0000-3-0000-3-0000-3-0000-5--0000-3-0000-3-0000-3-0000-65-| Rpt 4 X

 Rpt Main Riff 2 X
 Rpt Verse
 Rpt Chorus

 Rpt Main Riff 4 X 

 Rpt Main Riff 4 X For solo backing. 

 Rpt Main Riff 2 X
 Rpt Verse
 Rpt Chorus

    [----PM---]           [----PM---]
|--------------------------------------------|
|--------------------------------------------|
|--------------------------------------------|
|-2------------5-/875-2------------4-/54--|
|-0--0-0-0-0-0-3-/653-0--0-0-0-0-0-2-/32--|
|--------------------------------------------| Rpt 4 X

    [----PM---]           [----PM---]
|--------------------------------------------------------|
|--------------------------------------------------------|
|------------------------------------3-2---2-------------|
|-2------------5-/875-2----------------3---3-2---2--2--|
|-0--0-0-0-0-0-3-/653-0--0-0-0-0-0-------------3-0--0--|
|--------------------------------------------------------|



 END

ĂŽnscrie-te la newsletter


Like us on Facebook