Metal Forces Tab - Onslaught






----------------------------------------------------------------------------|
----------------------------------------------------------------------------|
----------------------------------------------------------------------------|
-2--2-3-2-5-2-3-2--2-3-2-------2--2-3-2-5-2--7--5--2--2-3-2-5-2-3-2--2-3-2--|
-------------------------3-2-3---------------5--3---------------------------|
----------------------------------------------------------------------------|


----------------------------------------------------------------------------|
----------------------------------------------------------------------------|
----------------------------------------------------------------------------|
--------2--2-3-2-5-2--7--5--2------------2------------2------------7--5--2--|
--3-2-3---------------5--3--2------------2------------2------------5--3--2--|
----------------------------0--0-0-0-0-0-0--0-0-0-0-0-0--0-0-0-0-0-------0--|
                               . . . . .    . . . . .    . . . . .
----------------------------------------------------------------------------|
----------------------------------------------------------------------------|
----------------------------------------------------------------------------|
-------------2------------2------------7--5--2------------2------------2----|
-------------2------------2------------5--3--2------------2------------2----|
---0-0-0-0-0-0--0-0-0-0-0-0--0-0-0-0-0-------0--0-0-0-0-0-0--0-0-0-0-0-0----|
   . . . . .    . . . . .    . . . . .          . . . . .    . . . . .
----------------------------------------------------------------------------|
----------------------------------------------------------------------------|
----------------------------------------------------------------------------|
------------7--5--2------------2------------2------------7--5--2------------|
------------5--3--2------------2------------2------------5--3--2------------|
--0-0-0-0-0-------0--0-0-0-0-0-0--0-0-0-0-0-0--0-0-0-0-0-------0--0-0-0-0-0-|
  . . . . .          . . . . .    . . . . .    . . . . .          . . . . .
----------------------------------------------------------------------------|
----------------------------------------------------------------------------|
----------------------------------------------------------------------------|
-2------------2------------7--5--2------------------------------------------|
-2------------2------------5--3--2------------------------------------------|
-0--0-0-0-0-0-0--0-0-0-0-0-------0------------------------------------------|
    . . . . .    . . . . .

i still need to put the rest..

ĂŽnscrie-te la newsletter


Like us on Facebook