Witch Hunt Tab - Onslaught






Band:  Onslaught
Album: Power From Hell
Song:  Witch Hunt
Copyright (c)  (Under One Flag) (1987)
Version 1.0 - (23/04/06)

Transcribed By: Steve
Email:          stephen.elvidge1@ntlworld.com


.  - palm mute           /  - slide up to
  - slide down to       ~  - vibrato
h  - hammer on           b  - Bend
p  - pull off            Suffixes for bend
t  - tap                 f  - full bend    h - half bend
ph - pinched harmonic    q  - quarter bend t - tap bend
*  - see comment         ^  - Hold bend    r release bend
x  - Stuccatto           ~  - vibrato bend
,  - slight palm mute    () - ghost note, sustained note
"  - tremolo note         - harmonic

Tunning E A D G B E
 
 Intro


E------------------------------------------------------------|
B------------------------------------------------------------|
G------------------------------------------------------------|
D------------------------------------------------------------|
A-2-2-2-2-2-2-2-2-2-2-2-2-2-2-2-2-2-2-2-2-2-2-2-2-2-2-2-2--2-|
E-0-0-0-0-0-0-0-0-0-0-0-0-0-0-0-0-0-0-0-0-0-0-0-0-0-0-0-0--0-|


  Guitar 1
E[--------------------------------------------------|
B[--------------------------------------------------|
G[--------------------------------------------------|
D[--------------------------------------------------|
A[-2--------------------(0)-------------------------|
E[-0--------------------(0)-------------------------|
 [Guitar 2
E[--------------------------------------------------|
B[--------------------------------------------------|
G[--------------------------------------------------|
D[--------------------------------------------------|
A[-2------------------------------------------------|
E[-0-----------------0-0-3p0-6-0-3p0-0-0-3p0-6-0-3p-|


  Guitar 1
E[------------------------------------------------------------|
B[------------------------------------------------------------|
G[------------------------------------------------------------|
D[-9-9---------------------------9-9--------------------------|
A[-7-7---------------------------7-7--------------------------|
E[------------------------------------------------------------|
 [Guitar 2
E[------------------------------------------------------------|
B[------------------------------------------------------------|
G[------------------------------------------------------------|
D[------------------------------------------------------------|
A[------------------------------------------------------------|
E[-0-0-3p0-6p0-3p0-0-3p0-6p0-3p0-0-0-3p0-6p0-3p0-0-3p0-6p0-3p-|


  Guitar 1
E[------------------------------|
B[------------------------------|
G[------------------------------|
D[-9-9--------------------------|
A[-7-7--------------------------|
E[------------------------------|
 [Guitar 2
E[------------------------------|
B[------------------------------|
G[------------------------------|
D[------------------------------|
A[------------------------------|
E[-0-0-3p0-6p0-3p0-0-3p0-6p0-3p-|


  Guitar 1
E[------------------------------------------------------------------|
B[------------------------------------------------------------------|
G[------------------------------------------------------------------|
D[-9-------9-------9-------5-5-54-9-------9-------9-------5-4-3--|
A[-7-77777-7-77777-7-77777-3-3-32-7-77777-7-77777-7-77777-3-2-1--|
E[-0-00000-0-00000-0-00000---------0-00000-0-00000-0-00000----------|
 [Guitar 1
E[------------------------------------------------------------------|
B[------------------------------------------------------------------|
G[------------------------------------------------------------------|
D[---------------------------------------------------------5-4-3--|
A[-2-------------------------(2)---------------------------3-2-1--|
E[-0-------------------------(0)------------------------------------|

 Main Riff

E------------------------------------------------------------------|
B------------------------------------------------------------------|
G------------------------------------------------------------------|
D-9-------9-------9-------5-5-54-9-------9-------9-------5-4-3--|
A-7-77777-7-77777-7-77777-3-3-32-7-77777-7-77777-7-77777-3-2-1--|
E-0-00000-0-00000-0-00000---------0-00000-0-00000-0-00000----------|
                                                        Rpt 4 X

 Chorus

E------------------------------------------------|
B------------------------------------------------|
G------------------------------------------------|
D-2---(0)---2------------------------------------|
A-0---(0)---0-5---(0)---53---(0)---32----3/5---|
E-------------3---(0)---31---(0)---1

ĂŽnscrie-te la newsletter


Like us on Facebook