b***h Tab - Pain






Pain - Psalms of Extinction - b***h

 . =Palm Mute
 \ =slide
 ~ =Vibrato
>< =To Be Continued

Tuning=ADGCFAD

I know he probably uses Drop A instead of Standard A, but I've got my guitar in 
A, and that's how I tabbed it. It's a very easy song, even when playing it in a 'wrong' 
;-).

||---------------------------------x1-|-----------------------------x2-|--------------------------x1-||
||------------------------------------|--------------------------------|-----------------------------||
||-------------------------------3-4~-|---------------------------3-4~-|-----------------------------||
||-----------------------------4------|-------------------------4------|-----------------------------||
||-5-2-2-3-2-2-5-2-2-3-2-2-5-6--------|-2-5-2-2-3-2-2-5-2-2-5-6--------|-2-5-2-2-3-2-----------------||
||------------------------------------|--------------------------------|-------------3-3-3-3-6-6-6-6-||
||------------------------------------|--------------------------------|-----------------------------||

||---------------------------------||
||---------------------------------||
||---------------------------------||
||---------------------------------||
||-5-5-5-5-5-5-5-5-5-5-5-5-5-5-5-5-||
||-3-3-3-3-3-3-3-3-3-3-3-3-3-3-3-3-||
||---------------------------------||
PM . . . . . . . .

||---------------------------------x1-|-----------------------------x2-|--------------------------x1-||
||------------------------------------|--------------------------------|-----------------------------||
||------------------------------------|--------------------------------|-----------------------------||
||------------------------------------|--------------------------------|-----------------------------||
||-------------------------------1-2~-|---------------------------1-2~-|-------------2-2-2-2-5-5-5-5-||
||-----------------------------2------|-------------------------2------|-------------3-3-3-3-6-6-6-6-||
||-3-0-0-1-0-0-3-0-0-1-0-0-3-4--------|-0-3-0-0-1-0-0-3-0-0-3-4--------|-0-3-0-0-1-0-----------------||

||-------------------------------------------------------------------||
||-------------------------------------------------------------------||
||-------------------------------------------------------------------||
||--------------------------2--2-2-----------------------------------||
||-4--4--4--4--4-4-5--5--5----------4--4--4--4--4-4-2--2--2--5--5-5--||
||--22-22-22-22-2-2-22-22-22-22-2-2--22-22-22-22-2-2-22-22-22-22-2-2-||
||-------------------------------------------------------------------||

||---------------------------------|---------------------------------|------------------------------------|>
||---------------------------------|---------------------------------|------------------------------------|>
||---------------------------------|---------------------------------|------------------------------------|>
||---------------------------------|---------------------------------|------------------------------------|>
||---------------------------------|-4\5-5-5-5-5-5-5-4\5-5-5-4\5-5-5-|-1-1-1-1-4-4-4-4-3-3-3-3-0-0-0-0-|>
||---------------------------------|-2\3-3-3-3-3-3-3-2\3-3-3-2\3-3-3-|-3-3-3-3-6-6-6-6-5-5-5-5-2-2-2-2-|>
||-1-2-2-1-2-2-1-2-2-1-2-2-1-2-2-2-|---------------------------------|------------------------------------|>







Like us on Facebook