Easy Out Tab - Pain






Verse
e:-2----1----2----1--5-3-:
b:--3----3----3----3-----:
g:---2----2----2---------:
D:----0----0----0--------:
A:-----------------------:
E:-----------------------:

Chorus
e:---2---3-2-0-2-:p:---2---0-----:
b:-3---3---------:l:-3---3---3-0-:
g:---------------:a:-------------:
D:---------------:y:-------------:
A:---------------:3:-------------:
E:---------------:x:-------------:

Chords for Outro
e:-----------------:
b:-----------------:
g:-7---9---4---6---:
D:-7---9---4---6---:
A:-5---7---2---4---:
E:-----------------:

   I don't know if he ever plays these, but it's here, just 
   in case you need it






Like us on Facebook