Shut Your Mouth Bass Tab - Pain






G:-----------------------------------------------------------------|
D:-----------------------------------------------------------------|
A:---------2-2-2-2---------5-5-5-5---------2-2-2-2-----------------|
E:-2-2-2-2---------5-5-5-5---------2-2-2-2---------5-5-5-5-4-4-5-4-|

G:-----------------------------------------------------------------|
D:-----------------------------------------------------------------|
A:---------2-2-2-2---------5-5-5-5---------2-2-2-2-5-5-5-5-4-4-5-4-|
E:-2-2-2-2---------5-5-5-5---------2-2-2-2-------------------------|

pretty much repeat for whole song






Like us on Facebook