Build God Then Well Talk Solo (ver2) Tab - Panic At The Disco







***********************************
* Author's Note:                  *
* This is exactly what the Violin *
* near the end of the song sounds *
* like. Enjoy (:                  *
*                                 *
***********************************

Played clean with low Voice, should make violin effect.

Part 1:
e-------------------------------------------------|
b-------------------------------------------------|
g-------------------------------------------------|
d-------------------------------------------------|
a--9-9-5-5-4-5-5-12-9-9-10-9-9-7-7-7-4-4-4-4-5-7--|
e-------------------------------------------------|


e-------------------------------------------------|
b-------------------------------------------------|
g-------------------------------------------------|
d-------------------------------------------------|
a--2-2-2-4-4-4-9-10-9-7---7-9-7-5---5-7-5-4-------|
e-------------------------------------------------|

Part 2:
e-------------------------------------------------|
b-------------------------------------------------|
g-------------------------------------------------|
d-------------------------------------------------|
a--9-9-5-5-4-5-5-12-9-9-10-9-9-7-7-7-4-4-4-4-5-7--|
e-------------------------------------------------|


e-------------------------------------------------|
b-------------------------------------------------|
g-------------------------------------------------|
d-------------------------------------------------|
a--2-2-2-4-4-4-9-10-9-7---7-9-7-5---5-7-5-1-------|
e-------------------------------------------------|

If done right will sound perfect :D

ĂŽnscrie-te la newsletter


Like us on Facebook