Build God Then Well Talk Solo Tab - Panic At The Disco






Panic! At the Disco
- build god, then we'll talk.

(there are no..)

E-13-------------13-16-13-13-14-13-13---------------------------------------|
B----14-14-13-14----------------------14-14-14-13-13-13-13/14/13-11-11-11---|
G---------------------------------------------------------------------------|
D---------------------------------------------------------------------------|
A---------------------------------------------------------------------------|
E---------------------------------------------------------------------------|

cont'd
E------------13/14/13-11-11-13-11-------------11----------------------------|
B--13-13-13-----------------------14-14-14-14----14-13----------------------|
G---------------------------------------------------------------------------|
D---------------------------------------------------------------------------|
A---------------------------------------------------------------------------|
E---------------------------------------------------------------------------|

tabbed by: Meagan King
fear--x------love@hotmail.com

ĂŽnscrie-te la newsletter


Like us on Facebook