But Its Better If You Do (ver4) Bass Tab - Panic At The Disco






I'm positive the song is in dropped D tuning, and it should be perfect except the 
still getting it down.

Intro/Verse:
G-----------------------------|-----------------------------|
D---------0-2-2-0-0-----------|-----0-2-2-0-0-5-532-------|
A-0--0h2-3----------3-32-----|-0h2-------------------000000|  Repeat x2
D-------------------------3/5-|-----------------------------|

Prechorus: Peach...and lime...daquari (Or however you spell that)
G-----------------------------------------------------------|
D-----------------------------------------------------------|
A-0-00-0~---------------------------------------------------|
D-----------------------------------------------------------|

Chorus
G-------------------------|---------------------------------|
D-----------------0-0-000-|---------------------------------|
A-0-0-000-3-3-333---------|---------------------------------|
D-------------------------|-3-3-333-2-2-222/6-6-666---------|

Repeat Verse:

Do the Chorus the same for the last bar, do this instead...
G------------------------|
D------------------------|
A------------------------|
D-3-3-333-2-2-222-0-0-000|

Bridge: It's alot more complex than this, but this is what I do at the moment.
G------------------------------------|
D-------------------------3-3-333----| Repeat that like...4 times I think.
A-0-0-000-0-0-3-3-333-3-3------------|
D------------------------------------|

Chorus Again

Outro: Also probably wrong but work with me. Listen to the song and come in the same 
it does on the song.
G------------------|
D------------------|
A-------------5-5--|
D-7-7-5-5-3-3------|

That should be all. E-mail me at chadwick46@hotmail.com if you have ?'s.

ĂŽnscrie-te la newsletter


Like us on Facebook