But Its Better If You Do Bass Tab - Panic At The Disco






gay band lol this tab sucks. btw
G|----------|-----------|-----------|-----------|-----------|
D|----------|-----------|-----------|-----------|-----------|
A|----------|---------3-|7--7-5--5-3|--3--2-----|-----------|
E|---5------|---5-3-5---|-----------|-------3---|-5/--------|

G|----------|-----------|-----------|-----------|-----------|
D|----------|----------5|-5--3--3--2|-----------|-----------|
A|--------3-|7--7-5---3-|-----------|-----------|-----------|
E|--5-3-5---|-----------|-----------|5-5-5-5-5-5|5-5-5-5-5-5|

G|----------|-----------|-----------|-----------|-----------|
D|----------|-----------|-----------|-----------|-----------|
A|9-9-9-9-9-|8-8-8-8-8-8|-----------|-----------|9-9-9-9-9-9|
E|----------|-----------|5-5-5-5-5-5|5-5-5-5-5-5|-----------|

G|---------|----------------|-------|
D|---------|----------------|-------|
A|8-8-8-8-8|----------------|-------|
E|---------|--3-----8----7--|--1---1|
G|----------|----------|-----------|-----------|-----------|-----------|
D|----------|----------|-----------|-----------|-----------|-----------|
A|----------|9-9-9-9-9-|8-8-8-8-8-8|-----------|-----------|9-9-9-9-9-9|
E|5-5-5-5-5-|-----------|-----------|5-5-5-5-5-5|5-5-5-5-5-5|-----------|





ĂŽnscrie-te la newsletter


Like us on Facebook