I Write Sins Not Tragedies (ver2) Bass Tab - Panic At The Disco






Song: I Write Sins Not Tragedies
Artist: Panic! At The Disco
Album: A Fever you Can't Sweat Out
Tabbed by: Julioman

Here you go...

No bass during intro

Verse 1
Around 11 seconds in
G|-2---------------5------------------2-----------------------|
D|-------------------4-------------------3--------------------| Repeat
A|------------------------------------------------------------|
E|------------------------------------------------------------|
*This isn't actually a bass guitar, but the sound is the same.


Chorus:
G|----------------------------------------------------------|
D|----------------------------------------------------------|
A|-0-----0-0------------------------------------------------|
E|------------3--3--3-3-3-3-0--0-0--0--0--0-5-5-5-----------|

G|----------------------------------------------------------|
D|----------------------------------------------------------|
A|-0-----0-0------------------------------------------------|
E|------------3--3--3-3-3-3-0--0-0-0-0-0-5-5-5-5-5----------|


G|----------------------------------------------------------|
D|-----------------------------------------------5-5-5------|
A|-0----0-0-0-0-------------------------5--5-5-5------------| And repeat to beginning of
E|---------------3--3--3-3-3-3-0--0-0-0---------------------|  this line


Verse 2
G|---------5----------------2-------------------------------|
D|-7---------4---4--4-4---4---3----3--3-3--3----------------|
A|----------------------------------------------------------|
E|----------------------------------------------------------|

G|---------------------------------------5------------------|
D|----------------------------------------------------------|
A|-0-0---0--0-0----0--0-0---0--0-0---0----------------------|
E|----------------------------------------------------------|

G|----------------2-----------------------------------------|
D|-4----4--4-4--4---3---3--3--3-3-3-3-3-3-------------------|
A|----------------------------------------------------------|
E|----------------------------------------------------------|

Interlude
G|-----------------------------------------------------------------|
D|-3-3-3-3-3-3-3-3-3-3-3-3-0-0-0-0---------------------------------|
A|---------------------------------2-2-2-2-2-2-2-2-2-2-2-2-2-2-2-2-|
E|-----------------------------------------------------------------|

G|----------------------------------------------------------------|
D|-3-3-3-3-3-3-3-3-3-3-3-3/-7-7-7-7-------------------------------|
A|----------------------------------5-5-5-5-----------------------|
E|------------------------------------------0-0-0-0-0-0-0-0-0-0-0-|

Chorus


G|----------------------------------------------------------|
D|-----------------------------------------------5-5-5------|
A|-0----0-0-0-0-------------------------5--5-5-5------------| Play 3 times
E|---------------3--3--3-3-3-3-0--0-0-0---------------------|


G|----------------------------------------------------------|
D|----------------------------------------------------------|
A|-0--0-0-0-0---------------------------------------5-5-----|
E|------------3--3--3-3-3-3--0--0-0-0-0-0-0-0-0-0-0---------|

Bridge
G|----------------------------------------------------------|
D|----------------------------------------------------------|
A|-----------------------5--5-5--2-2-2-2-2-2--2--2-2-2--2-2-|
E|-3-3-3-3-3-3-3--3--3-3------------------------------------|

G|----------------------------------------------------------|
D|----------------------------------------------------------|
A|----------------------------------------------------------|
E|-3-3-3-3-3-3-3-3--3-3-5-5-5-5-0-0-0-0-0-0-0-0--0--0--0----|

G|----------------------------------------------------------|
D|----------------------------------------------------------|
A|----------------------2--2-2-3-3-3-3-3-3-3-3--3-3-3--3-3--|
E|-3-3-3-3-3-3-3-3--3-3-------------------------------------|

G|----------------------------------------------------------|
D|----------------------------------------------------------|
A|--------------------------------0--0-0--------------------|
E|-3-3-3-3-3-3-3-3-3-3-3--3-3-3-3--------3--3--3-3-3-3-0----|

G|----------------------------------------------------------|
D|----------------------------------------------------------|
A|---------------0--0-0-------------------------------------|
E|-0--0--0-5-5-5--------3--3--3-3-3-3-0--0-0-0--------------|

G|----------------------------------------------------------|
D|----------------------------------------------------------|
A|-0-----0-0------------------------------------------------|
E|------------3--3--3-3-3-3-0--0-0--0--0--0-5-5-5-----------|

G|----------------------------------------------------------|
D|----------------------------------------------------------|
A|-----------------------5--5-5--2-2-2-2-2-2--2--2-2-2--2-2-|
E|-3-3-3-3-3-3-3--3--3-3------------------------------------|

G|----------------------------------------------------------|
D|----------------------------------------------------------|
A|----------------------------------------------------------|
E|-3-3-3-3-3-3-3-3--3-3-5-5-5-5-0-0-0-0-0-0-0-0--0--0--0----|

G|----------------------------------------------------------|
D|----------------------------------------------------------|
A|----------------------2--2-2-3-3-3-3-3-3-3-3--3-3-3--3-3--|
E|-3-3-3-3-3-3-3-3--3-3-------------------------------------|

Outro
G|----------------------------------------------------------|
D|----------------------------------------------------------|
A|----------------------------------------------------------|
E|-3-3-3-3-3-3-3-3--3-3s5-5-5-5-0-0-0-0-0-0-0-0--0-0-0--0-0-|

End with
G|----------------------------------------------------------|
D|----------------------------------------------------------|
A|----------------------------------------------------------|
E|-3-3-3-3-3------------------------------------------------|
Hold last note

That's it. The timing is hard to tell from my tab, but if you listen to the song, you
should be able to figure it out.

Contact me with any questions, comments, or corrections at picklekid7@yahoo.com.

ĂŽnscrie-te la newsletter


Like us on Facebook