I Write Sins Not Tragedies (ver3) Tab - Panic At The Disco






I'm pretty sure this is about 96% correct. Please feel free to leave comments so i can
improve this tab.
Enjoy!

I have made some improvements to the chorus. Let me now what you think by email 
or by leaving a comment above.

Intro

e|------------------------------------------------------------------|
b|------------------------------------------------------------------|
g|-------5---4--------5---4-------5--4-------5--4-------------------|
d|-----2---2-------2----2-------2---2------2---2--------------------|
a|---0-----------0------------0----------0--------------------------|
D|------------------------------------------------------------------|

e|------------------------------------------------------------------|
b|-------3------------3------------1---1-------1---1----------------|
g|-----5---5-4------5---5-4------4---4-------4---4------------------|
d|---4------------4------------3-----------3------------------------|
a|------------------------------------------------------------------|
D|------------------------------------------------------------------|

Verse (same as intro)

Chorus-(for the first part of the chorus lift your fingers just off the fretboard to 
the strings for A5 & F5 staccato power chords, but use the palm of your picking hand for 
open position on D5 chords)

     A5                   F5
e|----------------------------------------------|
b|----------------------------------------------|
g|----------------------------------------------|
d|---7-7----7-7-7---------3-3--3-3-3------------|
a|---7-7----7-7-7---------3-3--3-3-3------------|
D|---7-7----7-7-7---------3-3--3-3-3-0----------|

    D5                  G5
e|----------------------------------------------------| x2
b|--3--3--3--3--3--3--3-------------------------------|
g|--2--2--2--2--2--2--2-------------------------------|
d|--0--0--0--0--0--0--0--5-5-5------------------------|
a|--0--0--0--0--0--0--0--5-5-5------------------------|
D|--0--0--0--0--0--0--0--5-5-5------------------------|

   A5                 F5                D5                  G5
e|-------------------------------------------------------------| x2
b|-------------------------------------------------------------|
g|-------------------------------------------------------------|
d|--7-7-7-7-7-7-7-7---3-3-3-3-3-3-3-3---0-0-0-0-0-0-0-0-----5--|
a|--7-7-7-7-7-7-7-7---3-3-3-3-3-3-3-3---0-0-0-0-0-0-0-0-----5--|
D|--7-7-7-7-7-7-7-7---3-3-3-3-3-3-3-3---0-0-0-0-0-0-0-0-----5--|


Verse(same)

Pre Chorus- Use palm muting to get a lighter sound. You can also try different picking 
aswell to help create this sound

   F5   D5   C5  F5   C5   D5
e|-----------------------------------------|
b|-----------------------------------------|
g|-------7---5--------5----7---------------|
d|--3----7---5---3----5----7---------------|
a|--3----5---3---3----3----5---------------|
D|--3------------3-------------------------|

Chorus(same)

Interlude

    F5               D5                C5
e|------------------------------------------------------|
b|------------------------------------------------------|
g|-------------------7-7-7-7-7-7-7-7---5-5-5-5-5-5-5-5--|
d|--3-3-3-3-3-3-3-3--7-7-7-7-7-7-7-7---5-5-5-5-5-5-5-5--|
a|--3-3-3-3-3-3-3-3--5-5-5-5-5-5-5-5---3-3-3-3-3-3-3-3--|
D|--3-3-3-3-3-3-3-3-------------------------------------|

    F5               C5               D5
e|------------------------------------------------------| x2
b|------------------------------------------------------|
g|-------------------5-5-5-5-5-5-5-5--7-7-7-7-7-7-7-7---|
d|--3-3-3-3-3-3-3-3--5-5-5-5-5-5-5-5--7-7-7-7-7-7-7-7---|
a|--3-3-3-3-3-3-3-3--3-3-3-3-3-3-3-3--5-5-5-5-5-5-5-5---|
D|--3-3-3-3-3-3-3-3-------------------------------------|

Chorus(same as before)

Interlude(same as before)

Then end with this

e|----------------|
b|----------------|
g|----------------|
d|--3-3-3-3-------|
a|--3-3-3-3-------|
D|--3-3-3-3-------|

ĂŽnscrie-te la newsletter


Like us on Facebook