I Write Sins Not Tragedies (ver4) Tab - Panic At The Disco






heres my tab. ive only been playing guitar for only 4 weeks. i taught myself everything
the first two, then practaiced for the last two. this tab was written in 3 days,I didn`t
a cd, and i did it all from memory of what the song sounds like, so please, TELL ME IF 
SUCKS!!!

tuning: drop D

intro


E|-------------------------------------------------------------------------|
B|-------------------------------------------------------------------------|
G|---------1---0-----1---0-----1---0-----1---1-----3---3-----3---3-----1--0|
D|-------3---3-----3---3-----3---3-----3---3-----3---3-----3---3-----3---3-|
A|-----3---------3---------3---------3---------3---------3---------3-------|
D|-------------------------------------------------------------------------|

E|------------|
B|------------|
G|-------1---1|
D|-----3---3--|
A|---3--------|
D|------------|

E|-------------------------------------------------------------------------|
B|-------------------------------------------------------------------------|
G|---------1---0-----1---0-----1---0-----1---1-----3---3-----3---3-----1--0|
D|-------3---3-----3---3-----3---3-----3---3-----3---3-----3---3-----3---3-|
A|-----3---------3---------3---------3---------3---------3---------3-------|
D|-------------------------------------------------------------------------|
       oh, well imagine, of a church  and i cant     to hear       a most
as i`m pacing the peus    cooridor         help but    but to hear
E|------------|
B|------------|
G|-------1---1|
D|-----3---3--|
A|---3--------|
D|------------|
  certain extanging
      of words

E|-------------------------------------------------------------------------|
B|-------------------------------------------------------------------------|
G|---------1---0-----1---0-----1---0-----1---1-----3---3-----3---3-----1--0|
D|-------3---3-----3---3-----3---3-----3---3-----3---3-----3---3-----3---3-|
A|-----3---------3---------3---------3---------3---------3---------3-------|
D|-------------------------------------------------------------------------|
   what a beutiful  what a beutiful  said the bridesmaid  well, what a shame
       wedding          wedding         to the waiter         what a shame

E|------------|
B|------------|
G|-------1---1|
D|-----3---3--|
A|---3--------|
D|------------|
   the poor groom`s bride
     is all shhhhh...

verse 1
E|-------------------------------------------------------------------------|
B|-------------------------------------------------------------------------|
G|-------------------------------------------------------------------------|
D|---10-10-10-10--0-0-0-0--7-7-7-7-7-7-7--5--9-9-9--0-0-0-0--10-10-10-10---|
A|---10-10-10-10--0-0-0-0--7-7-7-7-7-7-7--5--9-9-9--0-0-0-0--10-10-10-10---|
D|---10-10-10-10--0-0-0-0--7-7-7-7-7-7-7--5--9-9-9--0-0-0-0--10-10-10-10---|
 1.) i chimed in  haven`t you  heard of  lame door?  know it`s   take these
       with a       people ever      closing the        much better to
 2.) kinds of things    sense of poise
        with a             and rationality...
E|-------------------------------------------------------------------------|
B|-------------------------------------------------------------------------|
G|-------------------------------------------------------------------------|
D|---10-10-10-10--0-0-0-0--7-7-7-7-7-7-7--5--9-9-9--0-0-0-0--10-10-10-10---|
A|---10-10-10-10--0-0-0-0--7-7-7-7-7-7-7--5--9-9-9--0-0-0-0--10-10-10-10---|
D|---10-10-10-10--0-0-0-0--7-7-7-7-7-7-7--5--9-9-9--0-0-0-0--10-10-10-10---|
 1.) i chimed in  haven`t you  heard of  lame door?  know it`s   take these
       with a       people ever      closing the        much better to
 2.) kinds of things
        with a sense of...
verse 2
E|-------------------------------------------------------------------------|
B|-------------------------------------------------------------------------|
G|---------1---0-----1---0-----1---0-----1---1-----3---3-----3---3-----1--0|
D|-------3---3-----3---3-----3---3-----3---3-----3---3-----3---3-----3---3-|
A|-----3---------3---------3---------3---------3---------3---------3-------|
D|-------------------------------------------------------------------------|
    oh, well  if you    this way i mean    marraige is said, calls for
      in fact,   look at it   technically our   well this      a toast so E|--|
B|----------------------------------------------------------------------------|
G|-------1---1----------------------------------------------------------------|
D|-----3---3------------------------------------------------------------------|
A|---3------------------------------------------------------------------------|
D|----------------------------------------------------------------------------|
  pour the
champaign


E|-------------------------------------------------------------------------|
B|-------------------------------------------------------------------------|
G|---------1---0-----1---0-----1---0-----1---1-----3---3-----3---3-----1--0|
D|-------3---3-----3---3-----3---3-----3---3-----3---3-----3---3-----3---3-|
A|-----3---------3---------3---------3---------3---------3---------3-------|
D|-------------------------------------------------------------------------|
    oh, well  if you    this way i mean    marraige is said, calls for
      in fact,   look at it   technically our   well this      a toast so E|--|
B|----------------------------------------------------------------------------|
G|-------1---1----------------------------------------------------------------|
D|-----3---3------------------------------------------------------------------|
A|---3------------------------------------------------------------------------|
D|----------------------------------------------------------------------------|
  pour the  pour the
champaign,    champaign.


bridge
E|--8----9-6------8----9-1------|
B|------------------------------|
G|------------------------------|
D|------------------------------|
A|------------------------------|
D|------------------------------|

E|-------------------------------------------------------------------------|
B|-------------------------------------------------------------------------|
G|-------------------------------------------------------------------------|
D|---10-10-10-10--0-0-0-0--7-7-7-7-7-7-7--5--9-9-9--0-0-0-0--10-10-10-10---|
A|---10-10-10-10--0-0-0-0--7-7-7-7-7-7-7--5--9-9-9--0-0-0-0--10-10-10-10---|
D|---10-10-10-10--0-0-0-0--7-7-7-7-7-7-7--5--9-9-9--0-0-0-0--10-10-10-10---|
 1.) i chimed in  haven`t you  heard of  lame door?  know it`s   take these
       with a       people ever      closing the        much better to
 2.) kinds of things    sense of poise
        with a             and rationality...
E|-------------------------------------------------------------------------|
B|-------------------------------------------------------------------------|
G|-------------------------------------------------------------------------|
D|---10-10-10-10--0-0-0-0--7-7-7-7-7-7-7--5--9-9-9--0-0-0-0--10-10-10-10---|
A|---10-10-10-10--0-0-0-0--7-7-7-7-7-7-7--5--9-9-9--0-0-0-0--10-10-10-10---|
D|---10-10-10-10--0-0-0-0--7-7-7-7-7-7-7--5--9-9-9--0-0-0-0--10-10-10-10---|
 1.) i chimed in  haven`t you  heard of  lame door?  know it`s   take these
       with a       people ever      closing the        much better to
 2.) kinds of things
        with a sense of...
                                                                          E|--|
B|----------------------------------------------------------------------------|
G|----------------------------------------------------------------------------|
D|--2---4--5----7--9-9-9-9--5~-10~-10-10-10-10--9--5-5-5-5-5-5-5-5--2-2-2-2~--|
A|--2---4--5----7--9-9-9-9--5~-10~-10-10-10-10--9--5-5-5-5-5-5-5-5--2-2-2-2~--|
D|--2---4--5----7--9-9-9-9--5~-10~-10-10-10-10--9--5-5-5-5-5-5-5-5--2-2-2-2~--|
   poise and rationality
E|-------------------------------------------------------------------------|
B|-------------------------------------------------------------------------|
G|-------------------------------------------------------------------------|
D|14-14-14-14-14-14-14-14--12-12-12-12-12-12-12-12--9~-10--7~--------------|
A|14-14-14-14-14-14-14-14--12-12-12-12-12-12-12-12--9~-10--7~--------------|
D|14-14-14-14-14-14-14-14--12-12-12-12-12-12-12-12--9~-10--7~--------------|
               again...

outro
E|---------------|
B|---------------|
G|---------------|
D|-5--4-4~-------|
A|-5--4-4~-------|
D|-5--4-4~-------|

ĂŽnscrie-te la newsletter


Like us on Facebook