I Write Sins Not Tragedies Bass Tab - Panic At The Disco






Intro- Rest.
Verse- Rest.

Chorous

G---------|---------------------------|
D---------|---------------------------|
A--0------|----5-2-----3-5-----2-3----|
D-----3--0|--3-------3-------3-------3|

Bridge

G-------------------|
D-------------------|
A------5--2~---3-2~-|
D--3~---------------|

Outro
G|---------------------------|
D|---------------------------|
A|----5-2-----3-5-----2-3----|
D|--3-------3-------3-------3|

ĂŽnscrie-te la newsletter


Like us on Facebook