I Write Sins Not Tragedies Tab - Panic At The Disco






----------------------------------------------------
 "I Write Sins Not Tragedies" - Panic at the Disco
----------------------------------------------------
Tabbed by: Justin RiRaY
Email: Pakman7JR@hotmail.com       AIM: BeatPwner

Tuning: eBGDAD (Drop-D)

     INTRO
 
e|--------------------------------|
B|--------------------------------|
G|----5--4---5--4---5--4---5--4---|
D|---2--2---2--2---2--2---2--2----|
A|--0------0------0------0--------|
D|--------------------------------|
    ... .. ... .. ... .. ... ..
 

 
e|--------------------------------|
B|----3------3--------------------|
G|---5--54--5--54--45-45--45-45---|
D|--4------4------3------3--------|
A|--------------------------------|
D|--------------------------------|
    ... .. ... .. ... .. ... ..

     CHORUS
 
e|---------------|
B|---------------|
G|--2------------|
D|--2--3--0------|
A|--0--3--0------|
D|-----3--0------|


     Post-CHORUS

e|--------------------------------|
B|--------------------------------|
G|-----7-4------5-7-----4-5-------|
D|--3--7-4---3--5-7---3-4-5---3---|
A|--3--5-2---3--3-5---3-2-3---3---|
D|--3--------3--------3-------3---|


     OUTRO
 
e|----------------------------------------|
B|----------------------------------------|
G|-----7-4---------------4-5--------------|
D|--3--7-4---3--5-0---3--4-5---3--5-0---3-|
A|--3--5-2---3--5-0---3--2-3---3--5-0---3-|
D|--3--------3--5-0---3--------3--5-0---3-|

ĂŽnscrie-te la newsletter


Like us on Facebook