London Beckoned Songs About Money Written By Machines (ver2) Tab - Panic At The Disco






I didn't like the other tab so i decided to make my own ;D

Intro:
e|-----------------------------------------------------------|
B|-----------------------------------------------------------|
G|-----------------------------------------------------------|
D|--1-1-1--5-5-5-5-5-5-5-5-5-5-5--1-1-1-1-1-1-1-1-1-1-1-1-1--|
A|--3-3-3--7-7-7-7-7-7-7-7-7-7-7--3-3-3-3-3-3-3-3-3-3-3-3-3--|
d|--3-3-3--7-7-7-7-7-7-7-7-7-7-7--3-3-3-3-3-3-3-3-3-3-3-3-3--|
           . . . . . . . . . . .  . . . . . . . . . . . . . 

Pre Chorus:
e|-------------------------------------------------|
B|-------------------------------------------------|
G|-2-----------------2-----------------------------|
D|-2~~--1-1-1-1-1-1--2~~--1-1-1-1-1-1-1-1-1-1-1-1--|
A|-0~~--3-3-3-3-3-3--0~~--3-3-3-3-3-3-3-3-3-3-3-3--|
d|-0~~--3-3-3-3-3-3--0~~--3-3-3-3-3-3-3-3-3-3-3-3--|
    . . . . . . . .

Chorus:
e|-----------------------------------------------------------------|
B|-----------------------------------------------------------------|
G|-----------------------------------------------------------------|
D|--5-5-5-5-5-5-5-5-5-5-5--8--8--8--8--8--8--8--8--8--8--8--8--8---|
A|--7-7-7-7-7-7-7-7-7-7-7--10-10-10-10-10-10-10-10-10-10-10-10-10--|
d|--7-7-7-7-7-7-7-7-7-7-7--10-10-10-10-10-10-10-10-10-10-10-10-10--|



e|----------------------------------|
B|----------------------------------|
G|----------------------------------|
D|-1-1-1-1-1-1-1-1-1-1-1-1--4-4-4-4-|
A|-3-3-3-3-3-3-3-3-3-3-3-3--6-6-6-6-|
d|-3-3-3-3-3-3-3-3-3-3-3-3--6-6-6-6-|
             . . . .


Outro:
e|---------------------------------|
B|---------------------------------|
G|---------------------------------|
D|-5-5-5-5-4-4-4-4-3-3-3-3-2-2-2-2-|
A|-7-7-7-7-6-6-6-6-5-5-5-5-4-4-4-4-|
d|-7-7-7-7-6-6-6-6-5-5-5-5-4-4-4-4-|
   . . . . . . . . . . . . . . . . 

~ = let ring
. = palm mute


that's it, it's pretty easy :D

ĂŽnscrie-te la newsletter


Like us on Facebook