London Beckoned Songs About Money Written By Machines Tab - Panic At The Disco






Song: London Beckoned Songs About Money Written By Machines
Album: A Fever You Can't Sweat Out
Band: Panic! At The Disco
Tabber: Calum Neil (afirock74@hotmail.com)
Tuning: Drop d

Intro:
e|-----------------------------------------------------------|
B|-----------------------------------------------------------|
G|-----------------------------------------------------------|
D|--3-3-3--7-7-7-7-7-7-7-7-7-7-7--0-0-0-0-0-0-0-0-0-0-0-0-0--|
A|--3-3-3--7-7-7-7-7-7-7-7-7-7-7--0-0-0-0-0-0-0-0-0-0-0-0-0--|
d|--3-3-3--7-7-7-7-7-7-7-7-7-7-7--0-0-0-0-0-0-0-0-0-0-0-0-0--|
           x x x x x x x x x x x  x x x x x x x x x x x x x

Pre Chorus:
e|-------------------------------------------------|
B|-------------------------------------------------|
G|-------------------------------------------------|
D|-2~~--3-3-3-3-3-3--2~~--3-3-3-3-3-3-3-3-3-3-3-3--|
A|-2~~--3-3-3-3-3-3--2~~--3-3-3-3-3-3-3-3-3-3-3-3--|
d|-2~~--3-3-3-3-3-3--2~~--3-3-3-3-3-3-3-3-3-3-3-3--|
    x x x x x x x

Chorus:
e|-----------------------------------------------------------------|
B|-----------------------------------------------------------------|
G|-----------------------------------------------------------------|
D|--7-7-7-7-7-7-7-7-7-7-7--10-10-10-10-10-10-10-10-10-10-10-10-10--|
A|--7-7-7-7-7-7-7-7-7-7-7--10-10-10-10-10-10-10-10-10-10-10-10-10--|
d|--7-7-7-7-7-7-7-7-7-7-7--10-10-10-10-10-10-10-10-10-10-10-10-10--|

e|----------------------------------|
B|----------------------------------|
G|----------------------------------|
D|-3-3-3-3-3-3-3-3-3-3-3-3--6-6-6-6-|
A|-3-3-3-3-3-3-3-3-3-3-3-3--6-6-6-6-|
d|-3-3-3-3-3-3-3-3-3-3-3-3--6-6-6-6-|
            x x x x

Post-Chorus Riff:
e|-------------------8--8--8--8--8--8--8--8---------|
B|-10-10-10-10-10-10-10-10-10-10-10-10-10-10-10-----|
G|-x--x--x--x--x--x--x--x--x--x--x--x--x--x--x------|
D|-7--7--7--7--7--7--7--7--7--7--7--7--7--7--7////--|
A|--------------------------------------------------|
d|--------------------------------------------------|

Outro:
e|---------------------------------|
B|---------------------------------|
G|---------------------------------|
D|-7-7-7-7-6-6-6-6-5-5-5-5-4-4-4-4-|
A|-7-7-7-7-6-6-6-6-5-5-5-5-4-4-4-4-|
d|-7-7-7-7-6-6-6-6-5-5-5-5-4-4-4-4-|
   x x x x x x x x x x x x x x x x

ĂŽnscrie-te la newsletter


Like us on Facebook