Lying Is The Most Fun A Girl Can Have Without Taking Her Clothes Off (ver2) Tab - Panic At The Disco






begining riff 
e|--------------------------------------------------------------------3---| 
B|-----4-3-4---4-3-4---4-3-4---4-3-4----------------------------------4---| 
G|---5-------5-------5-------5---------5---5---5---5---5---5---5---5--5---| 
D|-----------------------------------6---6---6---6---6---6---6---6----6---| 
A|------------------------------------------------------------------------| 
E|------------------------------------------------------------------------| 
whole begining 4 times except last chord(play last chord at the end of riff) 
Chorus 
e|----------------------------------------------------------------------| 
B|----------------------------------------------------------------------| 
G|----------------------------------------------------------------------| 
D|------------------------------------5-5-5-5-5-5-5-5--3-3-3-3-3-3-3-3--| 
A|---3-3-3-3-3-3-3-3-3-3-3-3-3-3-3-3--3-3-3-3-3-3-3-3--1-1-1-1-1-1-1-1--| 
E|---1-1-1-1-1-1-1-1-1-1-1-1-1-1-1-1------------------------------------| 
Chorus Continued 
e|----------------------------------------------------------------------| 
B|----------------------------------------------------------------------| 
G|----------------------------------------------------------------------| 
D|------------------------------------5-5-5-5-5-5-5-5--3-3-3-3-3-3-3-3--| 
A|---6-6-6-6-6-6-6-6-6-6-6-6-6-6-6-6--3-3-3-3-3-3-3-3--1-1-1-1-1-1-1-1--| 
E|---4-4-4-4-4-4-4-4-4-4-4-4-4-4-4-4------------------------------------|
..continued
e|----------------------------------------------------------------------|
B|----------------------------------------------------------------------|
G|----------------------------------------------------------------------|
D|----------------------------------------------------------------------|
A|---6-6-6-6-6-6-6-6-6-6-6-6-6-6-6-6-----------------------------------|
E|---4-4-4-4-4-4-4-4-4-4-4-4-4-4-4-4------------------------------------|

Distorted part--cant figure out
 
1:04(Now I do recall...) 
e|---------3-------------3-----------------------------------------------| 
B|-----4-----4---4---4-----4---4--------4-------------4------------------|
G|---5---5-----5---5---5-----5------5-----5---5---5------5---5-----------|
D|--------------------------------6---6-----6---6---6------6-------------|
A|-----------------------------------------------------------------------|
E|-----------------------------------------------------------------------|
  repeat twice                                                             

chorus
e|----------------------------------------------------------|
B|----------------------------------------------------------|
G|----------------------------------------------------------|
D|------------------------5-5-5-5-5-5-5-5--3-3-3-3-3-3-3-3--|
A|---3-3-3-3-3-3-3-3-3-3--3-3-3-3-3-3-3-3--1-1-1-1-1-1-1-1--| 
E|---1-1-1-1-1-1-1-1-1-1------------------------------------|

chorus continued
e|----------------------------------------------------------------------| 
B|----------------------------------------------------------------------| 
G|----------------------------------------------------------------------| 
D|------------------------------------5-5-5-5-5-5-5-5--3-3-3-3-3-3-3-3--| 
A|---6-6-6-6-6-6-6-6-6-6-6-6-6-6-6-6--3-3-3-3-3-3-3-3--1-1-1-1-1-1-1-1--| 
E|---4-4-4-4-4-4-4-4-4-4-4-4-4-4-4-4------------------------------------|
..continued
e|----------------------------------------------------------------------|
B|----------------------------------------------------------------------|
G|----------------------------------------------------------------------|
D|----------------------------------------------------------------------|
A|---6-6-6-6-6-6-6-6-6-6-6-6-6-6-6-6------------------------------------|
E|---4-4-4-4-4-4-4-4-4-4-4-4-4-4-4-4------------------------------------|

1:38(dance to this beat)

e|-------------------------------------------------------------------------|
B|-------------------------------------------------------------------------|
G|-------------------------------------------------------------------------|
D|5-5-5-5-5-5-5-5-5-5-5-5-5-5-5-5-5-5-5-5-5--------------------------------|
A|3-3-3-3-3-2-2-2-2-2-6-6-6-6-6-6-6-6-6-6-6-3-3-3-3-3-3-3-3-3-3-3-3-3-3-3-3|
E|--------------------4-4-4-4-4-4-4-4-4-4-4-1-1-1-1-1-1-1-1-1-1-1-1-1-1-1-1|

Piano part
e|-------10-------8---------3-------------------------------------------|
B|----------8-------6-----4---------------------------------------------|
G|-----8--------7-------5-----------------------------------------------|
D|--10--------8-------6-------------------------------------------------|
A|----------------------------------------------------------------------|
E|----------------------------------------------------------------------|
repeat twice

e|---------3-------------3--------------------------------------3---------| 
B|-----4-----4---4---4-----4---4--------4-------------4---------4---------|
G|---5---5-----5---5---5-----5------5-----5---5---5------5---5--5---------|
D|--------------------------------6---6-----6---6---6------6----6---------|
A|------------------------------------------------------------------------|
E|------------------------------------------------------------------------|
  repeat twice (except last chord play at the end of riff)


Chorus 
e|----------------------------------------------------------------------| 
B|----------------------------------------------------------------------| 
G|----------------------------------------------------------------------| 
D|------------------------------------5-5-5-5-5-5-5-5--3-3-3-3-3-3-3-3--| 
A|---3-3-3-3-3-3-3-3-3-3-3-3-3-3-3-3--3-3-3-3-3-3-3-3--1-1-1-1-1-1-1-1--| 
E|---1-1-1-1-1-1-1-1-1-1-1-1-1-1-1-1------------------------------------| 
Chorus Continued 
e|----------------------------------------------------------------------| 
B|----------------------------------------------------------------------| 
G|----------------------------------------------------------------------| 
D|------------------------------------5-5-5-5-5-5-5-5--3-3-3-3-3-3-3-3--| 
A|---6-6-6-6-6-6-6-6-6-6-6-6-6-6-6-6--3-3-3-3-3-3-3-3--1-1-1-1-1-1-1-1--| 
E|---4-4-4-4-4-4-4-4-4-4-4-4-4-4-4-4------------------------------------|
..continued
e|----------------------------------------------------------------------|
B|----------------------------------------------------------------------|
G|----------------------------------------------------------------------|
D|----------------------------------------------------------------------|
A|---6-6-6-6-6-6-6-6-6-6-6-6-6-6-6-6------------------------------------|
E|---4-4-4-4-4-4-4-4-4-4-4-4-4-4-4-4------------------------------------|

     
2:34(So testosterone boys and harlequin girls Dance to this beat)
e|----------------------------------------------------------------------|
B|----------------------------------------------------------------------|
G|----------------------------------------------------------------------|
D|--5-5-5-5-5-5-5-5-5-5-5-5-5-5--5-5-5-5-5-5----------------------------|
A|--3-3-3-2-2-2-6-3-3-3-2-2-2-6--6-6-6-6-6-6----------------------------|
E---------------4-------------4--4-4-4-4-4-4----------------------------|
 
repeat piano part twice

Enjoy!!!!!

ĂŽnscrie-te la newsletter


Like us on Facebook