Lying Is The Most Fun A Girl Can Have Without Taking Her Clothes Off (ver2) Bass Tab - Panic At The Disco






Panic! At The Disco
Lying Is The Most Fun A Girl Can Have Without Taking Her Clothes Off (Bass)
Tuning: Standard
Transcribed by Soch Hean


thanks tomclosedcase for inspiring to transcribe this tab....

Verse:
|-------------------------------------------------------------------------------|
|-------------------------------------------------------------------------------|
|-3--3--3-3--6-6-----------------------1-3--3--3-3--6-6-----------------------1-|
|----------------6-6-4--4--4-4---4-1-4------------------6-6-4--4--4-4---4-1-4---|

|---------------------------------------------------------------------------------|
|---------------------------------------------------------------------------------|
|-3--3--3-3--6-6-----------------------1-3--3--3-3--6-6-----------------------1---|
|----------------6-6-4--4--4-4---4-1-4------------------6-6-4--4--4-4---4-1-4---4-|


Pre-Chorus:
|--------------------------------------------|
|-3-3-3-3-3-3-3-3-3-3-3-3-3-3-3-3-3-3--------|
|--------------------------------------------|
|--------------------------------------------|


Chorus:
|-------------------8-10--------------------------------------------------------|
|-10-10-10-10-10-10------8-8-8-8-8-8-10-8-6-6-6-6-6-6-6-6-6-6-6-6-6-6-6-8-------|
|-------------------------------------------------------------------------------|
|-------------------------------------------------------------------------------|

|-------------------8-10--------------------------------------------------------|
|-10-10-10-10-10-10------8-8-8-8-8-8-10-8-6-6-6-6-6-6-6-6-6-6-6-6-6-6-6-6-6-----|
|-------------------------------------------------------------------------------|
|-------------------------------------------------------------------------------|


So I guess we're back to us...
|-----------------------------------------------------------------|
|-----------------------------------------------------------------|
|-3-3-3-3-3-3-3-3-3-3-3-3-3-3-3-3---------------------------------|
|---------------------------------4-4-4-4-4-4-4-4-4-4-4-4-4-------|


Verse 2:
|--------------------------------------------------------------|
|---------------------------1----------------------------------|
|-1-3-3---1-3-3---1-3-3---1----1-------------------------------|
|---------------------------------4-4--1-4-4--1-4-4--1-4-1-4---|

|--------------------------------------------------------------|
|---------------------------1----------------------------------|
|-1-3-3---1-3-3---1-3-3---1----1-------------------------------|
|---------------------------------4-4--1-4-4--1-4-4--1-4-4-4---|


Pre-Chorus:
|-----------------------|
|-3-3-3-3-3-3-3-3-3-----|
|-----------------------|
|-----------------------|


Chorus:
|-------------------8-10--------------------------------------------------------|
|-10-10-10-10-10-10------8-8-8-8-8-8-10-8-6-6-6-6-6-6-6-6-6-6-6-6-6-6-6-8-------|
|-------------------------------------------------------------------------------|
|-------------------------------------------------------------------------------|

|-------------------8-10--------------------------------------------------------|
|-10-10-10-10-10-10------8-8-8-8-8-8-10-8-6-6-6-6-6-6-6-6-6-6-6-6-6-6-6-6-------|
|-------------------------------------------------------------------------------|
|-------------------------------------------------------------------------------|


Dance to this beat....
|--------------------------------------------------------|
|--------------------------------------------------------|
|--------------------------------------------------------|
|-8--8-8--8-8---7-7--7-7-7-7--4--4-4--4-4--4-4--4-4-4-4--|

|-----------------------------------------|
|-----------------------------------------|
|-----------------------------------3-----|
|-1-1-1-1-1-1-1-1-1-1-1-1-1-1-1-1---------|


Verse: I've got more wit.... (1:56)
|-----------------------------------------------------------|
|----------------------1------------------------------------|
|-3-3--1-3-3--1-3-3--1----1---------------------------------|
|----------------------------4-4--1-4-4--1-3-3--1-1-1-1-1---|

|------------------------------------------------------------|
|----------------------1-------------------------------------|
|-3-3--1-3-3--1-3-3--1----1----------------------------------|
|----------------------------4-4--1-4-4--1-3-3--1-1-1-1-1--4-|


Pre-Chorus:
|--------------------------------------------|
|-3-3-3-3-3-3-3-3-3-3-3-3-3-3-3-3-3-3--------|
|--------------------------------------------|
|--------------------------------------------|


[Play Chorus]


Breakdown/Outro: So testosterone boys... (2:35)
|-------------------------------------------------------------|
|-------------------------------------------------------------|
|-------------------------------------------------------------|
|-8--8--8--8--7--7--7--7---4-4-4-4-4-4-4-4-4-4-4-4-4-4-4-4----| (x2)

ĂŽnscrie-te la newsletter


Like us on Facebook